ISO-10303-21;
HEADER;
FILE_DESCRIPTION( ( '' ), '1' );
FILE_NAME( '//partserver001.servicenet/client_exchange/iodir/jobs/output/wkb13258951_no3/STEP/ve_030______600__2_14b.stp', '2008-11-28T11:40:14', ( '' ), ( '' ), ' ', ' ', ' ' );
FILE_SCHEMA( ( 'automotive_design' ) );
ENDSEC;
DATA;
#1 = MECHANICAL_DESIGN_GEOMETRIC_PRESENTATION_REPRESENTATION( ' ', ( #10, #11, #12, #13, #14, #15, #16, #17, #18, #19, #20, #21, #22, #23, #24 ), #6 );
#2 = PRODUCT_DEFINITION_CONTEXT( '', #25, 'design' );
#3 = APPLICATION_PROTOCOL_DEFINITION( 'INTERNATIONAL STANDARD', 'automotive_design', 1994, #25 );
#4 = PRODUCT_CATEGORY_RELATIONSHIP( 'NONE', 'NONE', #26, #27 );
#5 = SHAPE_DEFINITION_REPRESENTATION( #28, #29 );
#6 =  ( GEOMETRIC_REPRESENTATION_CONTEXT( 3 )GLOBAL_UNCERTAINTY_ASSIGNED_CONTEXT( ( #32 ) )GLOBAL_UNIT_ASSIGNED_CONTEXT( ( #34, #35, #36 ) )REPRESENTATION_CONTEXT( 'NONE', 'WORKSPACE' ) );
#10 = STYLED_ITEM( '', ( #38 ), #39 );
#11 = STYLED_ITEM( '', ( #40 ), #41 );
#12 = STYLED_ITEM( '', ( #42 ), #43 );
#13 = STYLED_ITEM( '', ( #44 ), #45 );
#14 = STYLED_ITEM( '', ( #46 ), #47 );
#15 = STYLED_ITEM( '', ( #48 ), #49 );
#16 = STYLED_ITEM( '', ( #50 ), #51 );
#17 = STYLED_ITEM( '', ( #52 ), #53 );
#18 = STYLED_ITEM( '', ( #54 ), #55 );
#19 = STYLED_ITEM( '', ( #56 ), #57 );
#20 = STYLED_ITEM( '', ( #58 ), #59 );
#21 = STYLED_ITEM( '', ( #60 ), #61 );
#22 = STYLED_ITEM( '', ( #62 ), #63 );
#23 = STYLED_ITEM( '', ( #64 ), #65 );
#24 = STYLED_ITEM( '', ( #66 ), #67 );
#25 = APPLICATION_CONTEXT( ' ' );
#26 = PRODUCT_CATEGORY( 'part', 'NONE' );
#27 = PRODUCT_RELATED_PRODUCT_CATEGORY( 'detail', ' ', ( #68 ) );
#28 = PRODUCT_DEFINITION_SHAPE( 'NONE', 'NONE', #69 );
#29 = ADVANCED_BREP_SHAPE_REPRESENTATION( '1', ( #51, #70 ), #6 );
#32 = UNCERTAINTY_MEASURE_WITH_UNIT( LENGTH_MEASURE( 1.00000000000000E-006 ), #34, '', '' );
#34 =  ( CONVERSION_BASED_UNIT( 'MILLIMETRE', #73 )LENGTH_UNIT(  )NAMED_UNIT( #76 ) );
#35 =  ( NAMED_UNIT( #78 )PLANE_ANGLE_UNIT(  )SI_UNIT( $, .RADIAN. ) );
#36 =  ( NAMED_UNIT( #78 )SOLID_ANGLE_UNIT(  )SI_UNIT( $, .STERADIAN. ) );
#38 = PRESENTATION_STYLE_ASSIGNMENT( ( #84 ) );
#39 = ADVANCED_FACE( '', ( #85 ), #86, .T. );
#40 = PRESENTATION_STYLE_ASSIGNMENT( ( #87 ) );
#41 = VERTEX_POINT( '', #88 );
#42 = PRESENTATION_STYLE_ASSIGNMENT( ( #89 ) );
#43 = EDGE_CURVE( '', #67, #53, #90, .T. );
#44 = PRESENTATION_STYLE_ASSIGNMENT( ( #91 ) );
#45 = EDGE_CURVE( '', #67, #61, #92, .T. );
#46 = PRESENTATION_STYLE_ASSIGNMENT( ( #93 ) );
#47 = ADVANCED_FACE( '', ( #94 ), #95, .T. );
#48 = PRESENTATION_STYLE_ASSIGNMENT( ( #96 ) );
#49 = EDGE_CURVE( '', #41, #53, #97, .T. );
#50 = PRESENTATION_STYLE_ASSIGNMENT( ( #98 ) );
#51 = MANIFOLD_SOLID_BREP( '1', #99 );
#52 = PRESENTATION_STYLE_ASSIGNMENT( ( #100 ) );
#53 = VERTEX_POINT( '', #101 );
#54 = PRESENTATION_STYLE_ASSIGNMENT( ( #102 ) );
#55 = EDGE_CURVE( '', #61, #67, #103, .T. );
#56 = PRESENTATION_STYLE_ASSIGNMENT( ( #104 ) );
#57 = ADVANCED_FACE( '', ( #105 ), #106, .T. );
#58 = PRESENTATION_STYLE_ASSIGNMENT( ( #107 ) );
#59 = ADVANCED_FACE( '', ( #108 ), #109, .T. );
#60 = PRESENTATION_STYLE_ASSIGNMENT( ( #110 ) );
#61 = VERTEX_POINT( '', #111 );
#62 = PRESENTATION_STYLE_ASSIGNMENT( ( #112 ) );
#63 = EDGE_CURVE( '', #41, #61, #113, .T. );
#64 = PRESENTATION_STYLE_ASSIGNMENT( ( #114 ) );
#65 = EDGE_CURVE( '', #53, #41, #115, .T. );
#66 = PRESENTATION_STYLE_ASSIGNMENT( ( #116 ) );
#67 = VERTEX_POINT( '', #117 );
#68 = PRODUCT( '1', '1', 'PART-1-DESC', ( #118 ) );
#69 = PRODUCT_DEFINITION( 'NONE', 'NONE', #119, #2 );
#70 = AXIS2_PLACEMENT_3D( '', #120, #121, #122 );
#73 = LENGTH_MEASURE_WITH_UNIT( LENGTH_MEASURE( 1.00000000000000 ), #123 );
#76 = DIMENSIONAL_EXPONENTS( 1.00000000000000, 0.000000000000000, 0.000000000000000, 0.000000000000000, 0.000000000000000, 0.000000000000000, 0.000000000000000 );
#78 = DIMENSIONAL_EXPONENTS( 0.000000000000000, 0.000000000000000, 0.000000000000000, 0.000000000000000, 0.000000000000000, 0.000000000000000, 0.000000000000000 );
#84 = SURFACE_STYLE_USAGE( .BOTH., #124 );
#85 = FACE_OUTER_BOUND( '', #125, .T. );
#86 = PLANE( '', #126 );
#87 = POINT_STYLE( ' ', #127, POSITIVE_LENGTH_MEASURE( 1.00000000000000E-006 ), #128 );
#88 = CARTESIAN_POINT( '', ( 0.000000000000000, -1.50000000000000, 1.83690953073357E-016 ) );
#89 = CURVE_STYLE( '', #129, POSITIVE_LENGTH_MEASURE( 1.00000000000000E-006 ), #130 );
#90 = LINE( '', #131, #132 );
#91 = CURVE_STYLE( '', #133, POSITIVE_LENGTH_MEASURE( 1.00000000000000E-006 ), #134 );
#92 = CIRCLE( '', #135, 1.50000000000000 );
#93 = SURFACE_STYLE_USAGE( .BOTH., #136 );
#94 = FACE_OUTER_BOUND( '', #137, .T. );
#95 = CYLINDRICAL_SURFACE( '', #138, 1.50000000000000 );
#96 = CURVE_STYLE( '', #139, POSITIVE_LENGTH_MEASURE( 1.00000000000000E-006 ), #140 );
#97 = CIRCLE( '', #141, 1.50000000000000 );
#98 = SURFACE_STYLE_USAGE( .BOTH., #142 );
#99 = CLOSED_SHELL( '', ( #47, #39, #59, #57 ) );
#100 = POINT_STYLE( ' ', #143, POSITIVE_LENGTH_MEASURE( 1.00000000000000E-006 ), #144 );
#101 = CARTESIAN_POINT( '', ( 0.000000000000000, 1.50000000000000, -3.67381906146713E-016 ) );
#102 = CURVE_STYLE( '', #145, POSITIVE_LENGTH_MEASURE( 1.00000000000000E-006 ), #146 );
#103 = CIRCLE( '', #147, 1.50000000000000 );
#104 = SURFACE_STYLE_USAGE( .BOTH., #148 );
#105 = FACE_OUTER_BOUND( '', #149, .T. );
#106 = PLANE( '', #150 );
#107 = SURFACE_STYLE_USAGE( .BOTH., #151 );
#108 = FACE_OUTER_BOUND( '', #152, .T. );
#109 = CYLINDRICAL_SURFACE( '', #153, 1.50000000000000 );
#110 = POINT_STYLE( ' ', #154, POSITIVE_LENGTH_MEASURE( 1.00000000000000E-006 ), #155 );
#111 = CARTESIAN_POINT( '', ( 600.000000000000, -1.50000000000000, 1.83690953073357E-016 ) );
#112 = CURVE_STYLE( '', #156, POSITIVE_LENGTH_MEASURE( 1.00000000000000E-006 ), #157 );
#113 = LINE( '', #158, #159 );
#114 = CURVE_STYLE( '', #160, POSITIVE_LENGTH_MEASURE( 1.00000000000000E-006 ), #161 );
#115 = CIRCLE( '', #162, 1.50000000000000 );
#116 = POINT_STYLE( ' ', #163, POSITIVE_LENGTH_MEASURE( 1.00000000000000E-006 ), #164 );
#117 = CARTESIAN_POINT( '', ( 600.000000000000, 1.50000000000000, -3.67381906146713E-016 ) );
#118 = PRODUCT_CONTEXT( '', #25, 'mechanical' );
#119 = PRODUCT_DEFINITION_FORMATION_WITH_SPECIFIED_SOURCE( ' ', 'NONE', #68, .NOT_KNOWN. );
#120 = CARTESIAN_POINT( '', ( 0.000000000000000, 0.000000000000000, 0.000000000000000 ) );
#121 = DIRECTION( '', ( 0.000000000000000, 0.000000000000000, 1.00000000000000 ) );
#122 = DIRECTION( '', ( 1.00000000000000, 0.000000000000000, 0.000000000000000 ) );
#123 =  ( NAMED_UNIT( #76 )LENGTH_UNIT(  )SI_UNIT( .MILLI., .METRE. ) );
#124 = SURFACE_SIDE_STYLE( '', ( #166 ) );
#125 = EDGE_LOOP( '', ( #167, #168 ) );
#126 = AXIS2_PLACEMENT_3D( '', #169, #170, #171 );
#127 = PRE_DEFINED_MARKER( '' );
#128 = COLOUR_RGB( '', 0.689999997615814, 0.689999997615814, 0.689999997615814 );
#129 = DRAUGHTING_PRE_DEFINED_CURVE_FONT( 'continuous' );
#130 = COLOUR_RGB( '', 0.689999997615814, 0.689999997615814, 0.689999997615814 );
#131 = CARTESIAN_POINT( '', ( 300.000000000000, 1.50000000000000, -1.83690953073357E-016 ) );
#132 = VECTOR( '', #172, 1.00000000000000 );
#133 = DRAUGHTING_PRE_DEFINED_CURVE_FONT( 'continuous' );
#134 = COLOUR_RGB( '', 0.689999997615814, 0.689999997615814, 0.689999997615814 );
#135 = AXIS2_PLACEMENT_3D( '', #173, #174, #175 );
#136 = SURFACE_SIDE_STYLE( '', ( #176 ) );
#137 = EDGE_LOOP( '', ( #177, #178, #179, #180 ) );
#138 = AXIS2_PLACEMENT_3D( '', #181, #182, #183 );
#139 = DRAUGHTING_PRE_DEFINED_CURVE_FONT( 'continuous' );
#140 = COLOUR_RGB( '', 0.689999997615814, 0.689999997615814, 0.689999997615814 );
#141 = AXIS2_PLACEMENT_3D( '', #184, #185, #186 );
#142 = SURFACE_SIDE_STYLE( '', ( #187 ) );
#143 = PRE_DEFINED_MARKER( '' );
#144 = COLOUR_RGB( '', 0.689999997615814, 0.689999997615814, 0.689999997615814 );
#145 = DRAUGHTING_PRE_DEFINED_CURVE_FONT( 'continuous' );
#146 = COLOUR_RGB( '', 0.689999997615814, 0.689999997615814, 0.689999997615814 );
#147 = AXIS2_PLACEMENT_3D( '', #188, #189, #190 );
#148 = SURFACE_SIDE_STYLE( '', ( #191 ) );
#149 = EDGE_LOOP( '', ( #192, #193 ) );
#150 = AXIS2_PLACEMENT_3D( '', #194, #195, #196 );
#151 = SURFACE_SIDE_STYLE( '', ( #197 ) );
#152 = EDGE_LOOP( '', ( #198, #199, #200, #201 ) );
#153 = AXIS2_PLACEMENT_3D( '', #202, #203, #204 );
#154 = PRE_DEFINED_MARKER( '' );
#155 = COLOUR_RGB( '', 0.689999997615814, 0.689999997615814, 0.689999997615814 );
#156 = DRAUGHTING_PRE_DEFINED_CURVE_FONT( 'continuous' );
#157 = COLOUR_RGB( '', 0.689999997615814, 0.689999997615814, 0.689999997615814 );
#158 = CARTESIAN_POINT( '', ( 300.000000000000, -1.50000000000000, 1.83690953073357E-016 ) );
#159 = VECTOR( '', #205, 1.00000000000000 );
#160 = DRAUGHTING_PRE_DEFINED_CURVE_FONT( 'continuous' );
#161 = COLOUR_RGB( '', 0.689999997615814, 0.689999997615814, 0.689999997615814 );
#162 = AXIS2_PLACEMENT_3D( '', #206, #207, #208 );
#163 = PRE_DEFINED_MARKER( '' );
#164 = COLOUR_RGB( '', 0.689999997615814, 0.689999997615814, 0.689999997615814 );
#166 = SURFACE_STYLE_FILL_AREA( #209 );
#167 = ORIENTED_EDGE( '', *, *, #45, .F. );
#168 = ORIENTED_EDGE( '', *, *, #55, .F. );
#169 = CARTESIAN_POINT( '', ( 600.000000000000, 0.750000000000000, -1.83690953073357E-016 ) );
#170 = DIRECTION( '', ( 1.00000000000000, 0.000000000000000, 0.000000000000000 ) );
#171 = DIRECTION( '', ( 0.000000000000000, -1.00000000000000, 2.44921270764475E-016 ) );
#172 = DIRECTION( '', ( -1.00000000000000, 0.000000000000000, 0.000000000000000 ) );
#173 = CARTESIAN_POINT( '', ( 600.000000000000, 0.000000000000000, 0.000000000000000 ) );
#174 = DIRECTION( '', ( -1.00000000000000, 0.000000000000000, 0.000000000000000 ) );
#175 = DIRECTION( '', ( 0.000000000000000, 1.00000000000000, -2.44921270764475E-016 ) );
#176 = SURFACE_STYLE_FILL_AREA( #210 );
#177 = ORIENTED_EDGE( '', *, *, #43, .F. );
#178 = ORIENTED_EDGE( '', *, *, #45, .T. );
#179 = ORIENTED_EDGE( '', *, *, #63, .F. );
#180 = ORIENTED_EDGE( '', *, *, #65, .F. );
#181 = CARTESIAN_POINT( '', ( 300.000000000000, 0.000000000000000, 0.000000000000000 ) );
#182 = DIRECTION( '', ( 1.00000000000000, 0.000000000000000, 0.000000000000000 ) );
#183 = DIRECTION( '', ( 0.000000000000000, 1.00000000000000, -2.44921270764475E-016 ) );
#184 = CARTESIAN_POINT( '', ( 0.000000000000000, 0.000000000000000, 0.000000000000000 ) );
#185 = DIRECTION( '', ( -1.00000000000000, 0.000000000000000, 0.000000000000000 ) );
#186 = DIRECTION( '', ( 0.000000000000000, 1.00000000000000, -2.44921270764475E-016 ) );
#187 = SURFACE_STYLE_FILL_AREA( #211 );
#188 = CARTESIAN_POINT( '', ( 600.000000000000, 0.000000000000000, 0.000000000000000 ) );
#189 = DIRECTION( '', ( -1.00000000000000, 0.000000000000000, 0.000000000000000 ) );
#190 = DIRECTION( '', ( 0.000000000000000, 1.00000000000000, -2.44921270764475E-016 ) );
#191 = SURFACE_STYLE_FILL_AREA( #212 );
#192 = ORIENTED_EDGE( '', *, *, #65, .T. );
#193 = ORIENTED_EDGE( '', *, *, #49, .T. );
#194 = CARTESIAN_POINT( '', ( 0.000000000000000, 0.750000000000000, -1.83690953073357E-016 ) );
#195 = DIRECTION( '', ( -1.00000000000000, 0.000000000000000, 0.000000000000000 ) );
#196 = DIRECTION( '', ( 0.000000000000000, 1.00000000000000, -2.44921270764475E-016 ) );
#197 = SURFACE_STYLE_FILL_AREA( #213 );
#198 = ORIENTED_EDGE( '', *, *, #43, .T. );
#199 = ORIENTED_EDGE( '', *, *, #49, .F. );
#200 = ORIENTED_EDGE( '', *, *, #63, .T. );
#201 = ORIENTED_EDGE( '', *, *, #55, .T. );
#202 = CARTESIAN_POINT( '', ( 300.000000000000, 0.000000000000000, 0.000000000000000 ) );
#203 = DIRECTION( '', ( 1.00000000000000, 0.000000000000000, 0.000000000000000 ) );
#204 = DIRECTION( '', ( 0.000000000000000, 1.00000000000000, -2.44921270764475E-016 ) );
#205 = DIRECTION( '', ( 1.00000000000000, 0.000000000000000, 0.000000000000000 ) );
#206 = CARTESIAN_POINT( '', ( 0.000000000000000, 0.000000000000000, 0.000000000000000 ) );
#207 = DIRECTION( '', ( -1.00000000000000, 0.000000000000000, 0.000000000000000 ) );
#208 = DIRECTION( '', ( 0.000000000000000, 1.00000000000000, -2.44921270764475E-016 ) );
#209 = FILL_AREA_STYLE( '', ( #214 ) );
#210 = FILL_AREA_STYLE( '', ( #215 ) );
#211 = FILL_AREA_STYLE( '', ( #216 ) );
#212 = FILL_AREA_STYLE( '', ( #217 ) );
#213 = FILL_AREA_STYLE( '', ( #218 ) );
#214 = FILL_AREA_STYLE_COLOUR( '', #219 );
#215 = FILL_AREA_STYLE_COLOUR( '', #220 );
#216 = FILL_AREA_STYLE_COLOUR( '', #221 );
#217 = FILL_AREA_STYLE_COLOUR( '', #222 );
#218 = FILL_AREA_STYLE_COLOUR( '', #223 );
#219 = COLOUR_RGB( '', 0.689999997615814, 0.689999997615814, 0.689999997615814 );
#220 = COLOUR_RGB( '', 0.689999997615814, 0.689999997615814, 0.689999997615814 );
#221 = COLOUR_RGB( '', 0.689999997615814, 0.689999997615814, 0.689999997615814 );
#222 = COLOUR_RGB( '', 0.689999997615814, 0.689999997615814, 0.689999997615814 );
#223 = COLOUR_RGB( '', 0.689999997615814, 0.689999997615814, 0.689999997615814 );
ENDSEC;
END-ISO-10303-21;
