ISO-10303-21;
HEADER;
FILE_DESCRIPTION( ( '' ), '1' );
FILE_NAME( '//partserver001.servicenet/client_exchange/iodir/jobs/output/wkb13259005_no3/STEP/ve_100______600__2_14b.stp', '2008-11-28T10:38:39', ( '' ), ( '' ), ' ', ' ', ' ' );
FILE_SCHEMA( ( 'automotive_design' ) );
ENDSEC;
DATA;
#1 = MECHANICAL_DESIGN_GEOMETRIC_PRESENTATION_REPRESENTATION( ' ', ( #10, #11, #12, #13, #14, #15, #16, #17, #18, #19, #20, #21, #22, #23, #24 ), #6 );
#2 = PRODUCT_DEFINITION_CONTEXT( '', #25, 'design' );
#3 = APPLICATION_PROTOCOL_DEFINITION( 'INTERNATIONAL STANDARD', 'automotive_design', 1994, #25 );
#4 = PRODUCT_CATEGORY_RELATIONSHIP( 'NONE', 'NONE', #26, #27 );
#5 = SHAPE_DEFINITION_REPRESENTATION( #28, #29 );
#6 =  ( GEOMETRIC_REPRESENTATION_CONTEXT( 3 )GLOBAL_UNCERTAINTY_ASSIGNED_CONTEXT( ( #32 ) )GLOBAL_UNIT_ASSIGNED_CONTEXT( ( #34, #35, #36 ) )REPRESENTATION_CONTEXT( 'NONE', 'WORKSPACE' ) );
#10 = STYLED_ITEM( '', ( #38 ), #39 );
#11 = STYLED_ITEM( '', ( #40 ), #41 );
#12 = STYLED_ITEM( '', ( #42 ), #43 );
#13 = STYLED_ITEM( '', ( #44 ), #45 );
#14 = STYLED_ITEM( '', ( #46 ), #47 );
#15 = STYLED_ITEM( '', ( #48 ), #49 );
#16 = STYLED_ITEM( '', ( #50 ), #51 );
#17 = STYLED_ITEM( '', ( #52 ), #53 );
#18 = STYLED_ITEM( '', ( #54 ), #55 );
#19 = STYLED_ITEM( '', ( #56 ), #57 );
#20 = STYLED_ITEM( '', ( #58 ), #59 );
#21 = STYLED_ITEM( '', ( #60 ), #61 );
#22 = STYLED_ITEM( '', ( #62 ), #63 );
#23 = STYLED_ITEM( '', ( #64 ), #65 );
#24 = STYLED_ITEM( '', ( #66 ), #67 );
#25 = APPLICATION_CONTEXT( ' ' );
#26 = PRODUCT_CATEGORY( 'part', 'NONE' );
#27 = PRODUCT_RELATED_PRODUCT_CATEGORY( 'detail', ' ', ( #68 ) );
#28 = PRODUCT_DEFINITION_SHAPE( 'NONE', 'NONE', #69 );
#29 = ADVANCED_BREP_SHAPE_REPRESENTATION( '1', ( #41, #70 ), #6 );
#32 = UNCERTAINTY_MEASURE_WITH_UNIT( LENGTH_MEASURE( 1.00000000000000E-006 ), #34, '', '' );
#34 =  ( CONVERSION_BASED_UNIT( 'MILLIMETRE', #73 )LENGTH_UNIT(  )NAMED_UNIT( #76 ) );
#35 =  ( NAMED_UNIT( #78 )PLANE_ANGLE_UNIT(  )SI_UNIT( $, .RADIAN. ) );
#36 =  ( NAMED_UNIT( #78 )SOLID_ANGLE_UNIT(  )SI_UNIT( $, .STERADIAN. ) );
#38 = PRESENTATION_STYLE_ASSIGNMENT( ( #84 ) );
#39 = EDGE_CURVE( '', #51, #65, #85, .T. );
#40 = PRESENTATION_STYLE_ASSIGNMENT( ( #86 ) );
#41 = MANIFOLD_SOLID_BREP( '1', #87 );
#42 = PRESENTATION_STYLE_ASSIGNMENT( ( #88 ) );
#43 = ADVANCED_FACE( '', ( #89 ), #90, .T. );
#44 = PRESENTATION_STYLE_ASSIGNMENT( ( #91 ) );
#45 = ADVANCED_FACE( '', ( #92 ), #93, .T. );
#46 = PRESENTATION_STYLE_ASSIGNMENT( ( #94 ) );
#47 = EDGE_CURVE( '', #49, #55, #95, .T. );
#48 = PRESENTATION_STYLE_ASSIGNMENT( ( #96 ) );
#49 = VERTEX_POINT( '', #97 );
#50 = PRESENTATION_STYLE_ASSIGNMENT( ( #98 ) );
#51 = VERTEX_POINT( '', #99 );
#52 = PRESENTATION_STYLE_ASSIGNMENT( ( #100 ) );
#53 = ADVANCED_FACE( '', ( #101 ), #102, .T. );
#54 = PRESENTATION_STYLE_ASSIGNMENT( ( #103 ) );
#55 = VERTEX_POINT( '', #104 );
#56 = PRESENTATION_STYLE_ASSIGNMENT( ( #105 ) );
#57 = ADVANCED_FACE( '', ( #106 ), #107, .T. );
#58 = PRESENTATION_STYLE_ASSIGNMENT( ( #108 ) );
#59 = EDGE_CURVE( '', #51, #55, #109, .T. );
#60 = PRESENTATION_STYLE_ASSIGNMENT( ( #110 ) );
#61 = EDGE_CURVE( '', #55, #51, #111, .T. );
#62 = PRESENTATION_STYLE_ASSIGNMENT( ( #112 ) );
#63 = EDGE_CURVE( '', #49, #65, #113, .T. );
#64 = PRESENTATION_STYLE_ASSIGNMENT( ( #114 ) );
#65 = VERTEX_POINT( '', #115 );
#66 = PRESENTATION_STYLE_ASSIGNMENT( ( #116 ) );
#67 = EDGE_CURVE( '', #65, #49, #117, .T. );
#68 = PRODUCT( '1', '1', 'PART-1-DESC', ( #118 ) );
#69 = PRODUCT_DEFINITION( 'NONE', 'NONE', #119, #2 );
#70 = AXIS2_PLACEMENT_3D( '', #120, #121, #122 );
#73 = LENGTH_MEASURE_WITH_UNIT( LENGTH_MEASURE( 1.00000000000000 ), #123 );
#76 = DIMENSIONAL_EXPONENTS( 1.00000000000000, 0.000000000000000, 0.000000000000000, 0.000000000000000, 0.000000000000000, 0.000000000000000, 0.000000000000000 );
#78 = DIMENSIONAL_EXPONENTS( 0.000000000000000, 0.000000000000000, 0.000000000000000, 0.000000000000000, 0.000000000000000, 0.000000000000000, 0.000000000000000 );
#84 = CURVE_STYLE( '', #124, POSITIVE_LENGTH_MEASURE( 1.00000000000000E-006 ), #125 );
#85 = LINE( '', #126, #127 );
#86 = SURFACE_STYLE_USAGE( .BOTH., #128 );
#87 = CLOSED_SHELL( '', ( #57, #53, #43, #45 ) );
#88 = SURFACE_STYLE_USAGE( .BOTH., #129 );
#89 = FACE_OUTER_BOUND( '', #130, .T. );
#90 = CYLINDRICAL_SURFACE( '', #131, 5.00000000000000 );
#91 = SURFACE_STYLE_USAGE( .BOTH., #132 );
#92 = FACE_OUTER_BOUND( '', #133, .T. );
#93 = PLANE( '', #134 );
#94 = CURVE_STYLE( '', #135, POSITIVE_LENGTH_MEASURE( 1.00000000000000E-006 ), #136 );
#95 = LINE( '', #137, #138 );
#96 = POINT_STYLE( ' ', #139, POSITIVE_LENGTH_MEASURE( 1.00000000000000E-006 ), #140 );
#97 = CARTESIAN_POINT( '', ( 0.000000000000000, -5.00000000000000, 6.12303176911189E-016 ) );
#98 = POINT_STYLE( ' ', #141, POSITIVE_LENGTH_MEASURE( 1.00000000000000E-006 ), #142 );
#99 = CARTESIAN_POINT( '', ( 600.000000000000, 5.00000000000000, -1.22460635382238E-015 ) );
#100 = SURFACE_STYLE_USAGE( .BOTH., #143 );
#101 = FACE_OUTER_BOUND( '', #144, .T. );
#102 = PLANE( '', #145 );
#103 = POINT_STYLE( ' ', #146, POSITIVE_LENGTH_MEASURE( 1.00000000000000E-006 ), #147 );
#104 = CARTESIAN_POINT( '', ( 600.000000000000, -5.00000000000000, 6.12303176911189E-016 ) );
#105 = SURFACE_STYLE_USAGE( .BOTH., #148 );
#106 = FACE_OUTER_BOUND( '', #149, .T. );
#107 = CYLINDRICAL_SURFACE( '', #150, 5.00000000000000 );
#108 = CURVE_STYLE( '', #151, POSITIVE_LENGTH_MEASURE( 1.00000000000000E-006 ), #152 );
#109 = CIRCLE( '', #153, 5.00000000000000 );
#110 = CURVE_STYLE( '', #154, POSITIVE_LENGTH_MEASURE( 1.00000000000000E-006 ), #155 );
#111 = CIRCLE( '', #156, 5.00000000000000 );
#112 = CURVE_STYLE( '', #157, POSITIVE_LENGTH_MEASURE( 1.00000000000000E-006 ), #158 );
#113 = CIRCLE( '', #159, 5.00000000000000 );
#114 = POINT_STYLE( ' ', #160, POSITIVE_LENGTH_MEASURE( 1.00000000000000E-006 ), #161 );
#115 = CARTESIAN_POINT( '', ( 0.000000000000000, 5.00000000000000, -1.22460635382238E-015 ) );
#116 = CURVE_STYLE( '', #162, POSITIVE_LENGTH_MEASURE( 1.00000000000000E-006 ), #163 );
#117 = CIRCLE( '', #164, 5.00000000000000 );
#118 = PRODUCT_CONTEXT( '', #25, 'mechanical' );
#119 = PRODUCT_DEFINITION_FORMATION_WITH_SPECIFIED_SOURCE( ' ', 'NONE', #68, .NOT_KNOWN. );
#120 = CARTESIAN_POINT( '', ( 0.000000000000000, 0.000000000000000, 0.000000000000000 ) );
#121 = DIRECTION( '', ( 0.000000000000000, 0.000000000000000, 1.00000000000000 ) );
#122 = DIRECTION( '', ( 1.00000000000000, 0.000000000000000, 0.000000000000000 ) );
#123 =  ( NAMED_UNIT( #76 )LENGTH_UNIT(  )SI_UNIT( .MILLI., .METRE. ) );
#124 = DRAUGHTING_PRE_DEFINED_CURVE_FONT( 'continuous' );
#125 = COLOUR_RGB( '', 0.689999997615814, 0.689999997615814, 0.689999997615814 );
#126 = CARTESIAN_POINT( '', ( 300.000000000000, 5.00000000000000, -6.12303176911189E-016 ) );
#127 = VECTOR( '', #166, 1.00000000000000 );
#128 = SURFACE_SIDE_STYLE( '', ( #167 ) );
#129 = SURFACE_SIDE_STYLE( '', ( #168 ) );
#130 = EDGE_LOOP( '', ( #169, #170, #171, #172 ) );
#131 = AXIS2_PLACEMENT_3D( '', #173, #174, #175 );
#132 = SURFACE_SIDE_STYLE( '', ( #176 ) );
#133 = EDGE_LOOP( '', ( #177, #178 ) );
#134 = AXIS2_PLACEMENT_3D( '', #179, #180, #181 );
#135 = DRAUGHTING_PRE_DEFINED_CURVE_FONT( 'continuous' );
#136 = COLOUR_RGB( '', 0.689999997615814, 0.689999997615814, 0.689999997615814 );
#137 = CARTESIAN_POINT( '', ( 300.000000000000, -5.00000000000000, 6.12303176911189E-016 ) );
#138 = VECTOR( '', #182, 1.00000000000000 );
#139 = PRE_DEFINED_MARKER( '' );
#140 = COLOUR_RGB( '', 0.689999997615814, 0.689999997615814, 0.689999997615814 );
#141 = PRE_DEFINED_MARKER( '' );
#142 = COLOUR_RGB( '', 0.689999997615814, 0.689999997615814, 0.689999997615814 );
#143 = SURFACE_SIDE_STYLE( '', ( #183 ) );
#144 = EDGE_LOOP( '', ( #184, #185 ) );
#145 = AXIS2_PLACEMENT_3D( '', #186, #187, #188 );
#146 = PRE_DEFINED_MARKER( '' );
#147 = COLOUR_RGB( '', 0.689999997615814, 0.689999997615814, 0.689999997615814 );
#148 = SURFACE_SIDE_STYLE( '', ( #189 ) );
#149 = EDGE_LOOP( '', ( #190, #191, #192, #193 ) );
#150 = AXIS2_PLACEMENT_3D( '', #194, #195, #196 );
#151 = DRAUGHTING_PRE_DEFINED_CURVE_FONT( 'continuous' );
#152 = COLOUR_RGB( '', 0.689999997615814, 0.689999997615814, 0.689999997615814 );
#153 = AXIS2_PLACEMENT_3D( '', #197, #198, #199 );
#154 = DRAUGHTING_PRE_DEFINED_CURVE_FONT( 'continuous' );
#155 = COLOUR_RGB( '', 0.689999997615814, 0.689999997615814, 0.689999997615814 );
#156 = AXIS2_PLACEMENT_3D( '', #200, #201, #202 );
#157 = DRAUGHTING_PRE_DEFINED_CURVE_FONT( 'continuous' );
#158 = COLOUR_RGB( '', 0.689999997615814, 0.689999997615814, 0.689999997615814 );
#159 = AXIS2_PLACEMENT_3D( '', #203, #204, #205 );
#160 = PRE_DEFINED_MARKER( '' );
#161 = COLOUR_RGB( '', 0.689999997615814, 0.689999997615814, 0.689999997615814 );
#162 = DRAUGHTING_PRE_DEFINED_CURVE_FONT( 'continuous' );
#163 = COLOUR_RGB( '', 0.689999997615814, 0.689999997615814, 0.689999997615814 );
#164 = AXIS2_PLACEMENT_3D( '', #206, #207, #208 );
#166 = DIRECTION( '', ( -1.00000000000000, 0.000000000000000, 0.000000000000000 ) );
#167 = SURFACE_STYLE_FILL_AREA( #209 );
#168 = SURFACE_STYLE_FILL_AREA( #210 );
#169 = ORIENTED_EDGE( '', *, *, #39, .T. );
#170 = ORIENTED_EDGE( '', *, *, #63, .F. );
#171 = ORIENTED_EDGE( '', *, *, #47, .T. );
#172 = ORIENTED_EDGE( '', *, *, #61, .T. );
#173 = CARTESIAN_POINT( '', ( 300.000000000000, 0.000000000000000, 0.000000000000000 ) );
#174 = DIRECTION( '', ( 1.00000000000000, 0.000000000000000, 0.000000000000000 ) );
#175 = DIRECTION( '', ( 0.000000000000000, 1.00000000000000, -2.44921270764475E-016 ) );
#176 = SURFACE_STYLE_FILL_AREA( #211 );
#177 = ORIENTED_EDGE( '', *, *, #67, .T. );
#178 = ORIENTED_EDGE( '', *, *, #63, .T. );
#179 = CARTESIAN_POINT( '', ( 0.000000000000000, 2.50000000000000, -6.12303176911189E-016 ) );
#180 = DIRECTION( '', ( -1.00000000000000, 0.000000000000000, 0.000000000000000 ) );
#181 = DIRECTION( '', ( 0.000000000000000, 1.00000000000000, -2.44921270764475E-016 ) );
#182 = DIRECTION( '', ( 1.00000000000000, 0.000000000000000, 0.000000000000000 ) );
#183 = SURFACE_STYLE_FILL_AREA( #212 );
#184 = ORIENTED_EDGE( '', *, *, #59, .F. );
#185 = ORIENTED_EDGE( '', *, *, #61, .F. );
#186 = CARTESIAN_POINT( '', ( 600.000000000000, 2.50000000000000, -6.12303176911189E-016 ) );
#187 = DIRECTION( '', ( 1.00000000000000, 0.000000000000000, 0.000000000000000 ) );
#188 = DIRECTION( '', ( 0.000000000000000, -1.00000000000000, 2.44921270764475E-016 ) );
#189 = SURFACE_STYLE_FILL_AREA( #213 );
#190 = ORIENTED_EDGE( '', *, *, #39, .F. );
#191 = ORIENTED_EDGE( '', *, *, #59, .T. );
#192 = ORIENTED_EDGE( '', *, *, #47, .F. );
#193 = ORIENTED_EDGE( '', *, *, #67, .F. );
#194 = CARTESIAN_POINT( '', ( 300.000000000000, 0.000000000000000, 0.000000000000000 ) );
#195 = DIRECTION( '', ( 1.00000000000000, 0.000000000000000, 0.000000000000000 ) );
#196 = DIRECTION( '', ( 0.000000000000000, 1.00000000000000, -2.44921270764475E-016 ) );
#197 = CARTESIAN_POINT( '', ( 600.000000000000, 0.000000000000000, 0.000000000000000 ) );
#198 = DIRECTION( '', ( -1.00000000000000, 0.000000000000000, 0.000000000000000 ) );
#199 = DIRECTION( '', ( 0.000000000000000, 1.00000000000000, -2.44921270764475E-016 ) );
#200 = CARTESIAN_POINT( '', ( 600.000000000000, 0.000000000000000, 0.000000000000000 ) );
#201 = DIRECTION( '', ( -1.00000000000000, 0.000000000000000, 0.000000000000000 ) );
#202 = DIRECTION( '', ( 0.000000000000000, 1.00000000000000, -2.44921270764475E-016 ) );
#203 = CARTESIAN_POINT( '', ( 0.000000000000000, 0.000000000000000, 0.000000000000000 ) );
#204 = DIRECTION( '', ( -1.00000000000000, 0.000000000000000, 0.000000000000000 ) );
#205 = DIRECTION( '', ( 0.000000000000000, 1.00000000000000, -2.44921270764475E-016 ) );
#206 = CARTESIAN_POINT( '', ( 0.000000000000000, 0.000000000000000, 0.000000000000000 ) );
#207 = DIRECTION( '', ( -1.00000000000000, 0.000000000000000, 0.000000000000000 ) );
#208 = DIRECTION( '', ( 0.000000000000000, 1.00000000000000, -2.44921270764475E-016 ) );
#209 = FILL_AREA_STYLE( '', ( #214 ) );
#210 = FILL_AREA_STYLE( '', ( #215 ) );
#211 = FILL_AREA_STYLE( '', ( #216 ) );
#212 = FILL_AREA_STYLE( '', ( #217 ) );
#213 = FILL_AREA_STYLE( '', ( #218 ) );
#214 = FILL_AREA_STYLE_COLOUR( '', #219 );
#215 = FILL_AREA_STYLE_COLOUR( '', #220 );
#216 = FILL_AREA_STYLE_COLOUR( '', #221 );
#217 = FILL_AREA_STYLE_COLOUR( '', #222 );
#218 = FILL_AREA_STYLE_COLOUR( '', #223 );
#219 = COLOUR_RGB( '', 0.689999997615814, 0.689999997615814, 0.689999997615814 );
#220 = COLOUR_RGB( '', 0.689999997615814, 0.689999997615814, 0.689999997615814 );
#221 = COLOUR_RGB( '', 0.689999997615814, 0.689999997615814, 0.689999997615814 );
#222 = COLOUR_RGB( '', 0.689999997615814, 0.689999997615814, 0.689999997615814 );
#223 = COLOUR_RGB( '', 0.689999997615814, 0.689999997615814, 0.689999997615814 );
ENDSEC;
END-ISO-10303-21;
