ISO-10303-21;
HEADER;
FILE_DESCRIPTION( ( '' ), '1' );
FILE_NAME( '//partserver001.servicenet/client_exchange/iodir/jobs/output/wkb13259005_no4/STEP/ve_100______800__2_14b.stp', '2008-11-28T10:38:41', ( '' ), ( '' ), ' ', ' ', ' ' );
FILE_SCHEMA( ( 'automotive_design' ) );
ENDSEC;
DATA;
#1 = MECHANICAL_DESIGN_GEOMETRIC_PRESENTATION_REPRESENTATION( ' ', ( #10, #11, #12, #13, #14, #15, #16, #17, #18, #19, #20, #21, #22, #23, #24 ), #6 );
#2 = PRODUCT_DEFINITION_CONTEXT( '', #25, 'design' );
#3 = APPLICATION_PROTOCOL_DEFINITION( 'INTERNATIONAL STANDARD', 'automotive_design', 1994, #25 );
#4 = PRODUCT_CATEGORY_RELATIONSHIP( 'NONE', 'NONE', #26, #27 );
#5 = SHAPE_DEFINITION_REPRESENTATION( #28, #29 );
#6 =  ( GEOMETRIC_REPRESENTATION_CONTEXT( 3 )GLOBAL_UNCERTAINTY_ASSIGNED_CONTEXT( ( #32 ) )GLOBAL_UNIT_ASSIGNED_CONTEXT( ( #34, #35, #36 ) )REPRESENTATION_CONTEXT( 'NONE', 'WORKSPACE' ) );
#10 = STYLED_ITEM( '', ( #38 ), #39 );
#11 = STYLED_ITEM( '', ( #40 ), #41 );
#12 = STYLED_ITEM( '', ( #42 ), #43 );
#13 = STYLED_ITEM( '', ( #44 ), #45 );
#14 = STYLED_ITEM( '', ( #46 ), #47 );
#15 = STYLED_ITEM( '', ( #48 ), #49 );
#16 = STYLED_ITEM( '', ( #50 ), #51 );
#17 = STYLED_ITEM( '', ( #52 ), #53 );
#18 = STYLED_ITEM( '', ( #54 ), #55 );
#19 = STYLED_ITEM( '', ( #56 ), #57 );
#20 = STYLED_ITEM( '', ( #58 ), #59 );
#21 = STYLED_ITEM( '', ( #60 ), #61 );
#22 = STYLED_ITEM( '', ( #62 ), #63 );
#23 = STYLED_ITEM( '', ( #64 ), #65 );
#24 = STYLED_ITEM( '', ( #66 ), #67 );
#25 = APPLICATION_CONTEXT( ' ' );
#26 = PRODUCT_CATEGORY( 'part', 'NONE' );
#27 = PRODUCT_RELATED_PRODUCT_CATEGORY( 'detail', ' ', ( #68 ) );
#28 = PRODUCT_DEFINITION_SHAPE( 'NONE', 'NONE', #69 );
#29 = ADVANCED_BREP_SHAPE_REPRESENTATION( '1', ( #61, #70 ), #6 );
#32 = UNCERTAINTY_MEASURE_WITH_UNIT( LENGTH_MEASURE( 1.00000000000000E-006 ), #34, '', '' );
#34 =  ( CONVERSION_BASED_UNIT( 'MILLIMETRE', #73 )LENGTH_UNIT(  )NAMED_UNIT( #76 ) );
#35 =  ( NAMED_UNIT( #78 )PLANE_ANGLE_UNIT(  )SI_UNIT( $, .RADIAN. ) );
#36 =  ( NAMED_UNIT( #78 )SOLID_ANGLE_UNIT(  )SI_UNIT( $, .STERADIAN. ) );
#38 = PRESENTATION_STYLE_ASSIGNMENT( ( #84 ) );
#39 = VERTEX_POINT( '', #85 );
#40 = PRESENTATION_STYLE_ASSIGNMENT( ( #86 ) );
#41 = ADVANCED_FACE( '', ( #87 ), #88, .T. );
#42 = PRESENTATION_STYLE_ASSIGNMENT( ( #89 ) );
#43 = EDGE_CURVE( '', #39, #65, #90, .T. );
#44 = PRESENTATION_STYLE_ASSIGNMENT( ( #91 ) );
#45 = EDGE_CURVE( '', #53, #63, #92, .T. );
#46 = PRESENTATION_STYLE_ASSIGNMENT( ( #93 ) );
#47 = EDGE_CURVE( '', #63, #53, #94, .T. );
#48 = PRESENTATION_STYLE_ASSIGNMENT( ( #95 ) );
#49 = EDGE_CURVE( '', #65, #39, #96, .T. );
#50 = PRESENTATION_STYLE_ASSIGNMENT( ( #97 ) );
#51 = ADVANCED_FACE( '', ( #98 ), #99, .T. );
#52 = PRESENTATION_STYLE_ASSIGNMENT( ( #100 ) );
#53 = VERTEX_POINT( '', #101 );
#54 = PRESENTATION_STYLE_ASSIGNMENT( ( #102 ) );
#55 = ADVANCED_FACE( '', ( #103 ), #104, .T. );
#56 = PRESENTATION_STYLE_ASSIGNMENT( ( #105 ) );
#57 = EDGE_CURVE( '', #65, #63, #106, .T. );
#58 = PRESENTATION_STYLE_ASSIGNMENT( ( #107 ) );
#59 = ADVANCED_FACE( '', ( #108 ), #109, .T. );
#60 = PRESENTATION_STYLE_ASSIGNMENT( ( #110 ) );
#61 = MANIFOLD_SOLID_BREP( '1', #111 );
#62 = PRESENTATION_STYLE_ASSIGNMENT( ( #112 ) );
#63 = VERTEX_POINT( '', #113 );
#64 = PRESENTATION_STYLE_ASSIGNMENT( ( #114 ) );
#65 = VERTEX_POINT( '', #115 );
#66 = PRESENTATION_STYLE_ASSIGNMENT( ( #116 ) );
#67 = EDGE_CURVE( '', #53, #39, #117, .T. );
#68 = PRODUCT( '1', '1', 'PART-1-DESC', ( #118 ) );
#69 = PRODUCT_DEFINITION( 'NONE', 'NONE', #119, #2 );
#70 = AXIS2_PLACEMENT_3D( '', #120, #121, #122 );
#73 = LENGTH_MEASURE_WITH_UNIT( LENGTH_MEASURE( 1.00000000000000 ), #123 );
#76 = DIMENSIONAL_EXPONENTS( 1.00000000000000, 0.000000000000000, 0.000000000000000, 0.000000000000000, 0.000000000000000, 0.000000000000000, 0.000000000000000 );
#78 = DIMENSIONAL_EXPONENTS( 0.000000000000000, 0.000000000000000, 0.000000000000000, 0.000000000000000, 0.000000000000000, 0.000000000000000, 0.000000000000000 );
#84 = POINT_STYLE( ' ', #124, POSITIVE_LENGTH_MEASURE( 1.00000000000000E-006 ), #125 );
#85 = CARTESIAN_POINT( '', ( 800.000000000000, -5.00000000000000, 6.12303176911189E-016 ) );
#86 = SURFACE_STYLE_USAGE( .BOTH., #126 );
#87 = FACE_OUTER_BOUND( '', #127, .T. );
#88 = PLANE( '', #128 );
#89 = CURVE_STYLE( '', #129, POSITIVE_LENGTH_MEASURE( 1.00000000000000E-006 ), #130 );
#90 = CIRCLE( '', #131, 5.00000000000000 );
#91 = CURVE_STYLE( '', #132, POSITIVE_LENGTH_MEASURE( 1.00000000000000E-006 ), #133 );
#92 = CIRCLE( '', #134, 5.00000000000000 );
#93 = CURVE_STYLE( '', #135, POSITIVE_LENGTH_MEASURE( 1.00000000000000E-006 ), #136 );
#94 = CIRCLE( '', #137, 5.00000000000000 );
#95 = CURVE_STYLE( '', #138, POSITIVE_LENGTH_MEASURE( 1.00000000000000E-006 ), #139 );
#96 = CIRCLE( '', #140, 5.00000000000000 );
#97 = SURFACE_STYLE_USAGE( .BOTH., #141 );
#98 = FACE_OUTER_BOUND( '', #142, .T. );
#99 = CYLINDRICAL_SURFACE( '', #143, 5.00000000000000 );
#100 = POINT_STYLE( ' ', #144, POSITIVE_LENGTH_MEASURE( 1.00000000000000E-006 ), #145 );
#101 = CARTESIAN_POINT( '', ( 0.000000000000000, -5.00000000000000, 6.12303176911189E-016 ) );
#102 = SURFACE_STYLE_USAGE( .BOTH., #146 );
#103 = FACE_OUTER_BOUND( '', #147, .T. );
#104 = PLANE( '', #148 );
#105 = CURVE_STYLE( '', #149, POSITIVE_LENGTH_MEASURE( 1.00000000000000E-006 ), #150 );
#106 = LINE( '', #151, #152 );
#107 = SURFACE_STYLE_USAGE( .BOTH., #153 );
#108 = FACE_OUTER_BOUND( '', #154, .T. );
#109 = CYLINDRICAL_SURFACE( '', #155, 5.00000000000000 );
#110 = SURFACE_STYLE_USAGE( .BOTH., #156 );
#111 = CLOSED_SHELL( '', ( #51, #55, #59, #41 ) );
#112 = POINT_STYLE( ' ', #157, POSITIVE_LENGTH_MEASURE( 1.00000000000000E-006 ), #158 );
#113 = CARTESIAN_POINT( '', ( 0.000000000000000, 5.00000000000000, -1.22460635382238E-015 ) );
#114 = POINT_STYLE( ' ', #159, POSITIVE_LENGTH_MEASURE( 1.00000000000000E-006 ), #160 );
#115 = CARTESIAN_POINT( '', ( 800.000000000000, 5.00000000000000, -1.22460635382238E-015 ) );
#116 = CURVE_STYLE( '', #161, POSITIVE_LENGTH_MEASURE( 1.00000000000000E-006 ), #162 );
#117 = LINE( '', #163, #164 );
#118 = PRODUCT_CONTEXT( '', #25, 'mechanical' );
#119 = PRODUCT_DEFINITION_FORMATION_WITH_SPECIFIED_SOURCE( ' ', 'NONE', #68, .NOT_KNOWN. );
#120 = CARTESIAN_POINT( '', ( 0.000000000000000, 0.000000000000000, 0.000000000000000 ) );
#121 = DIRECTION( '', ( 0.000000000000000, 0.000000000000000, 1.00000000000000 ) );
#122 = DIRECTION( '', ( 1.00000000000000, 0.000000000000000, 0.000000000000000 ) );
#123 =  ( NAMED_UNIT( #76 )LENGTH_UNIT(  )SI_UNIT( .MILLI., .METRE. ) );
#124 = PRE_DEFINED_MARKER( '' );
#125 = COLOUR_RGB( '', 0.689999997615814, 0.689999997615814, 0.689999997615814 );
#126 = SURFACE_SIDE_STYLE( '', ( #166 ) );
#127 = EDGE_LOOP( '', ( #167, #168 ) );
#128 = AXIS2_PLACEMENT_3D( '', #169, #170, #171 );
#129 = DRAUGHTING_PRE_DEFINED_CURVE_FONT( 'continuous' );
#130 = COLOUR_RGB( '', 0.689999997615814, 0.689999997615814, 0.689999997615814 );
#131 = AXIS2_PLACEMENT_3D( '', #172, #173, #174 );
#132 = DRAUGHTING_PRE_DEFINED_CURVE_FONT( 'continuous' );
#133 = COLOUR_RGB( '', 0.689999997615814, 0.689999997615814, 0.689999997615814 );
#134 = AXIS2_PLACEMENT_3D( '', #175, #176, #177 );
#135 = DRAUGHTING_PRE_DEFINED_CURVE_FONT( 'continuous' );
#136 = COLOUR_RGB( '', 0.689999997615814, 0.689999997615814, 0.689999997615814 );
#137 = AXIS2_PLACEMENT_3D( '', #178, #179, #180 );
#138 = DRAUGHTING_PRE_DEFINED_CURVE_FONT( 'continuous' );
#139 = COLOUR_RGB( '', 0.689999997615814, 0.689999997615814, 0.689999997615814 );
#140 = AXIS2_PLACEMENT_3D( '', #181, #182, #183 );
#141 = SURFACE_SIDE_STYLE( '', ( #184 ) );
#142 = EDGE_LOOP( '', ( #185, #186, #187, #188 ) );
#143 = AXIS2_PLACEMENT_3D( '', #189, #190, #191 );
#144 = PRE_DEFINED_MARKER( '' );
#145 = COLOUR_RGB( '', 0.689999997615814, 0.689999997615814, 0.689999997615814 );
#146 = SURFACE_SIDE_STYLE( '', ( #192 ) );
#147 = EDGE_LOOP( '', ( #193, #194 ) );
#148 = AXIS2_PLACEMENT_3D( '', #195, #196, #197 );
#149 = DRAUGHTING_PRE_DEFINED_CURVE_FONT( 'continuous' );
#150 = COLOUR_RGB( '', 0.689999997615814, 0.689999997615814, 0.689999997615814 );
#151 = CARTESIAN_POINT( '', ( 400.000000000000, 5.00000000000000, -6.12303176911189E-016 ) );
#152 = VECTOR( '', #198, 1.00000000000000 );
#153 = SURFACE_SIDE_STYLE( '', ( #199 ) );
#154 = EDGE_LOOP( '', ( #200, #201, #202, #203 ) );
#155 = AXIS2_PLACEMENT_3D( '', #204, #205, #206 );
#156 = SURFACE_SIDE_STYLE( '', ( #207 ) );
#157 = PRE_DEFINED_MARKER( '' );
#158 = COLOUR_RGB( '', 0.689999997615814, 0.689999997615814, 0.689999997615814 );
#159 = PRE_DEFINED_MARKER( '' );
#160 = COLOUR_RGB( '', 0.689999997615814, 0.689999997615814, 0.689999997615814 );
#161 = DRAUGHTING_PRE_DEFINED_CURVE_FONT( 'continuous' );
#162 = COLOUR_RGB( '', 0.689999997615814, 0.689999997615814, 0.689999997615814 );
#163 = CARTESIAN_POINT( '', ( 400.000000000000, -5.00000000000000, 6.12303176911189E-016 ) );
#164 = VECTOR( '', #208, 1.00000000000000 );
#166 = SURFACE_STYLE_FILL_AREA( #209 );
#167 = ORIENTED_EDGE( '', *, *, #47, .T. );
#168 = ORIENTED_EDGE( '', *, *, #45, .T. );
#169 = CARTESIAN_POINT( '', ( 0.000000000000000, 2.50000000000000, -6.12303176911189E-016 ) );
#170 = DIRECTION( '', ( -1.00000000000000, 0.000000000000000, 0.000000000000000 ) );
#171 = DIRECTION( '', ( 0.000000000000000, 1.00000000000000, -2.44921270764475E-016 ) );
#172 = CARTESIAN_POINT( '', ( 800.000000000000, 0.000000000000000, 0.000000000000000 ) );
#173 = DIRECTION( '', ( -1.00000000000000, 0.000000000000000, 0.000000000000000 ) );
#174 = DIRECTION( '', ( 0.000000000000000, 1.00000000000000, -2.44921270764475E-016 ) );
#175 = CARTESIAN_POINT( '', ( 0.000000000000000, 0.000000000000000, 0.000000000000000 ) );
#176 = DIRECTION( '', ( -1.00000000000000, 0.000000000000000, 0.000000000000000 ) );
#177 = DIRECTION( '', ( 0.000000000000000, 1.00000000000000, -2.44921270764475E-016 ) );
#178 = CARTESIAN_POINT( '', ( 0.000000000000000, 0.000000000000000, 0.000000000000000 ) );
#179 = DIRECTION( '', ( -1.00000000000000, 0.000000000000000, 0.000000000000000 ) );
#180 = DIRECTION( '', ( 0.000000000000000, 1.00000000000000, -2.44921270764475E-016 ) );
#181 = CARTESIAN_POINT( '', ( 800.000000000000, 0.000000000000000, 0.000000000000000 ) );
#182 = DIRECTION( '', ( -1.00000000000000, 0.000000000000000, 0.000000000000000 ) );
#183 = DIRECTION( '', ( 0.000000000000000, 1.00000000000000, -2.44921270764475E-016 ) );
#184 = SURFACE_STYLE_FILL_AREA( #210 );
#185 = ORIENTED_EDGE( '', *, *, #57, .F. );
#186 = ORIENTED_EDGE( '', *, *, #49, .T. );
#187 = ORIENTED_EDGE( '', *, *, #67, .F. );
#188 = ORIENTED_EDGE( '', *, *, #47, .F. );
#189 = CARTESIAN_POINT( '', ( 400.000000000000, 0.000000000000000, 0.000000000000000 ) );
#190 = DIRECTION( '', ( 1.00000000000000, 0.000000000000000, 0.000000000000000 ) );
#191 = DIRECTION( '', ( 0.000000000000000, 1.00000000000000, -2.44921270764475E-016 ) );
#192 = SURFACE_STYLE_FILL_AREA( #211 );
#193 = ORIENTED_EDGE( '', *, *, #49, .F. );
#194 = ORIENTED_EDGE( '', *, *, #43, .F. );
#195 = CARTESIAN_POINT( '', ( 800.000000000000, 2.50000000000000, -6.12303176911189E-016 ) );
#196 = DIRECTION( '', ( 1.00000000000000, 0.000000000000000, 0.000000000000000 ) );
#197 = DIRECTION( '', ( 0.000000000000000, -1.00000000000000, 2.44921270764475E-016 ) );
#198 = DIRECTION( '', ( -1.00000000000000, 0.000000000000000, 0.000000000000000 ) );
#199 = SURFACE_STYLE_FILL_AREA( #212 );
#200 = ORIENTED_EDGE( '', *, *, #57, .T. );
#201 = ORIENTED_EDGE( '', *, *, #45, .F. );
#202 = ORIENTED_EDGE( '', *, *, #67, .T. );
#203 = ORIENTED_EDGE( '', *, *, #43, .T. );
#204 = CARTESIAN_POINT( '', ( 400.000000000000, 0.000000000000000, 0.000000000000000 ) );
#205 = DIRECTION( '', ( 1.00000000000000, 0.000000000000000, 0.000000000000000 ) );
#206 = DIRECTION( '', ( 0.000000000000000, 1.00000000000000, -2.44921270764475E-016 ) );
#207 = SURFACE_STYLE_FILL_AREA( #213 );
#208 = DIRECTION( '', ( 1.00000000000000, 0.000000000000000, 0.000000000000000 ) );
#209 = FILL_AREA_STYLE( '', ( #214 ) );
#210 = FILL_AREA_STYLE( '', ( #215 ) );
#211 = FILL_AREA_STYLE( '', ( #216 ) );
#212 = FILL_AREA_STYLE( '', ( #217 ) );
#213 = FILL_AREA_STYLE( '', ( #218 ) );
#214 = FILL_AREA_STYLE_COLOUR( '', #219 );
#215 = FILL_AREA_STYLE_COLOUR( '', #220 );
#216 = FILL_AREA_STYLE_COLOUR( '', #221 );
#217 = FILL_AREA_STYLE_COLOUR( '', #222 );
#218 = FILL_AREA_STYLE_COLOUR( '', #223 );
#219 = COLOUR_RGB( '', 0.689999997615814, 0.689999997615814, 0.689999997615814 );
#220 = COLOUR_RGB( '', 0.689999997615814, 0.689999997615814, 0.689999997615814 );
#221 = COLOUR_RGB( '', 0.689999997615814, 0.689999997615814, 0.689999997615814 );
#222 = COLOUR_RGB( '', 0.689999997615814, 0.689999997615814, 0.689999997615814 );
#223 = COLOUR_RGB( '', 0.689999997615814, 0.689999997615814, 0.689999997615814 );
ENDSEC;
END-ISO-10303-21;
