ISO-10303-21;
HEADER;
FILE_DESCRIPTION (( 'STEP AP203' ),
    '1' );
FILE_NAME ('PH130000-250.STP',
    '2012-09-05T15:13:02',
    ( 'dis05' ),
    ( '' ),
    'SwSTEP 2.0',
    'SolidWorks 2010',
    '' );
FILE_SCHEMA (( 'CONFIG_CONTROL_DESIGN' ));
ENDSEC;

DATA;
#1 = EDGE_CURVE ( 'NONE', #63, #72, #17, .T. ) ;
#2 = VERTEX_POINT ( 'NONE', #19 ) ;
#3 = ADVANCED_FACE ( 'NONE', ( #20 ), #28, .T. ) ;
#4 = EDGE_CURVE ( 'NONE', #2, #71, #39, .T. ) ;
#5 = DIRECTION ( 'NONE',  ( 1.000000000000000000, 0.0000000000000000000, 0.0000000000000000000 ) ) ;
#6 = ADVANCED_FACE ( 'NONE', ( #21 ), #30, .T. ) ;
#7 = ORIENTED_EDGE ( 'NONE', *, *, #1, .T. ) ;
#8 = ORIENTED_EDGE ( 'NONE', *, *, #70, .T. ) ;
#9 = ORIENTED_EDGE ( 'NONE', *, *, #65, .F. ) ;
#10 = EDGE_LOOP ( 'NONE', ( #61, #66, #62, #7 ) ) ;
#11 = ADVANCED_FACE ( 'NONE', ( #18 ), #23, .F. ) ;
#12 = ORIENTED_EDGE ( 'NONE', *, *, #1, .F. ) ;
#13 = DIRECTION ( 'NONE',  ( 1.000000000000000000, 0.0000000000000000000, 0.0000000000000000000 ) ) ;
#14 = DIRECTION ( 'NONE',  ( 0.0000000000000000000, 0.0000000000000000000, 1.000000000000000000 ) ) ;
#15 = CARTESIAN_POINT ( 'NONE',  ( 0.0000000000000000000, 0.0000000000000000000, -125.0000000000000000 ) ) ;
#16 = AXIS2_PLACEMENT_3D ( 'NONE', #15, #14, #13 ) ;
#17 = CIRCLE ( 'NONE', #16, 1.500000000000000200 ) ;
#18 = FACE_OUTER_BOUND ( 'NONE', #75, .T. ) ;
#19 = CARTESIAN_POINT ( 'NONE',  ( -1.500000000000000200, 0.0000000000000000000, 125.0000000000000000 ) ) ;
#20 = FACE_OUTER_BOUND ( 'NONE', #10, .T. ) ;
#21 = FACE_OUTER_BOUND ( 'NONE', #60, .T. ) ;
#22 = DIRECTION ( 'NONE',  ( 0.0000000000000000000, 0.0000000000000000000, 1.000000000000000000 ) ) ;
#23 = PLANE ( 'NONE',  #32 ) ;
#24 = DIRECTION ( 'NONE',  ( -0.0000000000000000000, -0.0000000000000000000, -1.000000000000000000 ) ) ;
#25 = AXIS2_PLACEMENT_3D ( 'NONE', #27, #24, #26 ) ;
#26 = DIRECTION ( 'NONE',  ( -1.000000000000000000, 0.0000000000000000000, 0.0000000000000000000 ) ) ;
#27 = CARTESIAN_POINT ( 'NONE',  ( 0.0000000000000000000, 0.0000000000000000000, 125.0000000000000000 ) ) ;
#28 = CYLINDRICAL_SURFACE ( 'NONE', #25, 1.500000000000000200 ) ;
#29 = CARTESIAN_POINT ( 'NONE',  ( 0.0000000000000000000, 0.0000000000000000000, 125.0000000000000000 ) ) ;
#30 = PLANE ( 'NONE',  #40 ) ;
#31 = CARTESIAN_POINT ( 'NONE',  ( 0.0000000000000000000, 0.0000000000000000000, -125.0000000000000000 ) ) ;
#32 = AXIS2_PLACEMENT_3D ( 'NONE', #31, #22, #38 ) ;
#33 = DIRECTION ( 'NONE',  ( 0.0000000000000000000, 0.0000000000000000000, 1.000000000000000000 ) ) ;
#34 = CARTESIAN_POINT ( 'NONE',  ( 0.0000000000000000000, 0.0000000000000000000, 125.0000000000000000 ) ) ;
#35 = DIRECTION ( 'NONE',  ( 0.0000000000000000000, 0.0000000000000000000, 1.000000000000000000 ) ) ;
#36 = DIRECTION ( 'NONE',  ( 1.000000000000000000, 0.0000000000000000000, -0.0000000000000000000 ) ) ;
#37 = AXIS2_PLACEMENT_3D ( 'NONE', #34, #33, #5 ) ;
#38 = DIRECTION ( 'NONE',  ( 1.000000000000000000, 0.0000000000000000000, -0.0000000000000000000 ) ) ;
#39 = CIRCLE ( 'NONE', #37, 1.500000000000000200 ) ;
#40 = AXIS2_PLACEMENT_3D ( 'NONE', #29, #35, #36 ) ;
#41 = DIRECTION ( 'NONE',  ( 0.0000000000000000000, 0.0000000000000000000, 1.000000000000000000 ) ) ;
#42 = CARTESIAN_POINT ( 'NONE',  ( -1.500000000000000200, 0.0000000000000000000, -125.0000000000000000 ) ) ;
#43 = DIRECTION ( 'NONE',  ( 1.000000000000000000, 0.0000000000000000000, 0.0000000000000000000 ) ) ;
#44 = CARTESIAN_POINT ( 'NONE',  ( -1.500000000000000200, 0.0000000000000000000, 125.0000000000000000 ) ) ;
#45 = LINE ( 'NONE', #44, #55 ) ;
#46 = AXIS2_PLACEMENT_3D ( 'NONE', #50, #51, #52 ) ;
#47 = CIRCLE ( 'NONE', #56, 1.500000000000000200 ) ;
#48 = CARTESIAN_POINT ( 'NONE',  ( 0.0000000000000000000, 0.0000000000000000000, -125.0000000000000000 ) ) ;
#49 = CARTESIAN_POINT ( 'NONE',  ( 1.500000000000000200, 1.836970198721030200E-016, 125.0000000000000000 ) ) ;
#50 = CARTESIAN_POINT ( 'NONE',  ( 0.0000000000000000000, 0.0000000000000000000, 125.0000000000000000 ) ) ;
#51 = DIRECTION ( 'NONE',  ( 0.0000000000000000000, 0.0000000000000000000, 1.000000000000000000 ) ) ;
#52 = DIRECTION ( 'NONE',  ( 1.000000000000000000, 0.0000000000000000000, 0.0000000000000000000 ) ) ;
#53 = CIRCLE ( 'NONE', #46, 1.500000000000000200 ) ;
#54 = DIRECTION ( 'NONE',  ( -0.0000000000000000000, -0.0000000000000000000, -1.000000000000000000 ) ) ;
#55 = VECTOR ( 'NONE', #54, 1000.000000000000000 ) ;
#56 = AXIS2_PLACEMENT_3D ( 'NONE', #48, #41, #43 ) ;
#57 = FACE_OUTER_BOUND ( 'NONE', #74, .T. ) ;
#58 = CARTESIAN_POINT ( 'NONE',  ( 1.500000000000000200, 1.836970198721030200E-016, -125.0000000000000000 ) ) ;
#59 = CLOSED_SHELL ( 'NONE', ( #73, #3, #6, #11 ) ) ;
#60 = EDGE_LOOP ( 'NONE', ( #69, #8 ) ) ;
#61 = ORIENTED_EDGE ( 'NONE', *, *, #78, .F. ) ;
#62 = ORIENTED_EDGE ( 'NONE', *, *, #68, .T. ) ;
#63 = VERTEX_POINT ( 'NONE', #42 ) ;
#64 = ORIENTED_EDGE ( 'NONE', *, *, #65, .T. ) ;
#65 = EDGE_CURVE ( 'NONE', #72, #63, #47, .T. ) ;
#66 = ORIENTED_EDGE ( 'NONE', *, *, #4, .F. ) ;
#67 = ORIENTED_EDGE ( 'NONE', *, *, #68, .F. ) ;
#68 = EDGE_CURVE ( 'NONE', #2, #63, #45, .T. ) ;
#69 = ORIENTED_EDGE ( 'NONE', *, *, #4, .T. ) ;
#70 = EDGE_CURVE ( 'NONE', #71, #2, #53, .T. ) ;
#71 = VERTEX_POINT ( 'NONE', #49 ) ;
#72 = VERTEX_POINT ( 'NONE', #58 ) ;
#73 = ADVANCED_FACE ( 'NONE', ( #57 ), #159, .T. ) ;
#74 = EDGE_LOOP ( 'NONE', ( #77, #76, #64, #67 ) ) ;
#75 = EDGE_LOOP ( 'NONE', ( #12, #9 ) ) ;
#76 = ORIENTED_EDGE ( 'NONE', *, *, #78, .T. ) ;
#77 = ORIENTED_EDGE ( 'NONE', *, *, #70, .F. ) ;
#78 = EDGE_CURVE ( 'NONE', #71, #72, #152, .T. ) ;
#79 = MANIFOLD_SOLID_BREP ( 'Saliente-Extruir1', #59 ) ;
#80 = DATE_AND_TIME ( #81, #82 ) ;
#81 = CALENDAR_DATE ( 2012, 5, 9 ) ;
#82 = LOCAL_TIME ( 17, 13, 2.000000000000000000, #83 ) ;
#83 = COORDINATED_UNIVERSAL_TIME_OFFSET ( 1, 0, .AHEAD. ) ;
#84 = CC_DESIGN_PERSON_AND_ORGANIZATION_ASSIGNMENT ( #86, #85, ( #87 ) ) ;
#85 = PERSON_AND_ORGANIZATION_ROLE ( 'classification_officer' ) ;
#86 = PERSON_AND_ORGANIZATION ( #135, #134 ) ;
#87 = SECURITY_CLASSIFICATION ( '', '', #88 ) ;
#88 = SECURITY_CLASSIFICATION_LEVEL ( 'unclassified' ) ;
#89 = CC_DESIGN_PERSON_AND_ORGANIZATION_ASSIGNMENT ( #91, #90, ( #106 ) ) ;
#90 = PERSON_AND_ORGANIZATION_ROLE ( 'design_supplier' ) ;
#91 = PERSON_AND_ORGANIZATION ( #135, #134 ) ;
#92 = CC_DESIGN_PERSON_AND_ORGANIZATION_ASSIGNMENT ( #94, #93, ( #106 ) ) ;
#93 = PERSON_AND_ORGANIZATION_ROLE ( 'creator' ) ;
#94 = PERSON_AND_ORGANIZATION ( #135, #134 ) ;
#95 = CC_DESIGN_APPROVAL ( #103, ( #106 ) ) ;
#96 = APPROVAL_DATE_TIME ( #97, #103 ) ;
#97 = DATE_AND_TIME ( #98, #99 ) ;
#98 = CALENDAR_DATE ( 2012, 5, 9 ) ;
#99 = LOCAL_TIME ( 17, 13, 2.000000000000000000, #100 ) ;
#100 = COORDINATED_UNIVERSAL_TIME_OFFSET ( 1, 0, .AHEAD. ) ;
#101 = APPROVAL_PERSON_ORGANIZATION ( #105, #103, #102 ) ;
#102 = APPROVAL_ROLE ( '' ) ;
#103 = APPROVAL ( #104, 'UNSPECIFIED' ) ;
#104 = APPROVAL_STATUS ( 'not_yet_approved' ) ;
#105 = PERSON_AND_ORGANIZATION ( #135, #134 ) ;
#106 = PRODUCT_DEFINITION_FORMATION_WITH_SPECIFIED_SOURCE ( 'ANY', '', #136, .NOT_KNOWN. ) ;
#107 = CC_DESIGN_DATE_AND_TIME_ASSIGNMENT ( #109, #108, ( #127 ) ) ;
#108 = DATE_TIME_ROLE ( 'creation_date' ) ;
#109 = DATE_AND_TIME ( #110, #111 ) ;
#110 = CALENDAR_DATE ( 2012, 5, 9 ) ;
#111 = LOCAL_TIME ( 17, 13, 2.000000000000000000, #112 ) ;
#112 = COORDINATED_UNIVERSAL_TIME_OFFSET ( 1, 0, .AHEAD. ) ;
#113 = CC_DESIGN_PERSON_AND_ORGANIZATION_ASSIGNMENT ( #115, #114, ( #127 ) ) ;
#114 = PERSON_AND_ORGANIZATION_ROLE ( 'creator' ) ;
#115 = PERSON_AND_ORGANIZATION ( #135, #134 ) ;
#116 = CC_DESIGN_APPROVAL ( #124, ( #127 ) ) ;
#117 = APPROVAL_DATE_TIME ( #118, #124 ) ;
#118 = DATE_AND_TIME ( #119, #120 ) ;
#119 = CALENDAR_DATE ( 2012, 5, 9 ) ;
#120 = LOCAL_TIME ( 17, 13, 2.000000000000000000, #121 ) ;
#121 = COORDINATED_UNIVERSAL_TIME_OFFSET ( 1, 0, .AHEAD. ) ;
#122 = APPROVAL_PERSON_ORGANIZATION ( #126, #124, #123 ) ;
#123 = APPROVAL_ROLE ( '' ) ;
#124 = APPROVAL ( #125, 'UNSPECIFIED' ) ;
#125 = APPROVAL_STATUS ( 'not_yet_approved' ) ;
#126 = PERSON_AND_ORGANIZATION ( #135, #134 ) ;
#127 = PRODUCT_DEFINITION ( 'UNKNOWN', '', #106, #128 ) ;
#128 = DESIGN_CONTEXT ( 'detailed design', #130, 'design' ) ;
#129 = APPLICATION_PROTOCOL_DEFINITION ( 'international standard', 'config_control_design', 1994, #130 ) ;
#130 = APPLICATION_CONTEXT ( 'configuration controlled 3d designs of mechanical parts and assemblies' ) ;
#131 = CC_DESIGN_PERSON_AND_ORGANIZATION_ASSIGNMENT ( #133, #132, ( #136 ) ) ;
#132 = PERSON_AND_ORGANIZATION_ROLE ( 'design_owner' ) ;
#133 = PERSON_AND_ORGANIZATION ( #135, #134 ) ;
#134 = ORGANIZATION ( 'UNSPECIFIED', 'UNSPECIFIED', '' ) ;
#135 = PERSON ( 'UNSPECIFIED', 'UNSPECIFIED', 'UNSPECIFIED', ('UNSPECIFIED'), ('UNSPECIFIED'), ('UNSPECIFIED') ) ;
#136 = PRODUCT ( 'PH130000-250', 'PH130000-250', '', ( #137 ) ) ;
#137 = MECHANICAL_CONTEXT ( 'NONE', #143, 'mechanical' ) ;
#138 = APPLICATION_PROTOCOL_DEFINITION ( 'international standard', 'config_control_design', 1994, #143 ) ;
#139 = SHAPE_DEFINITION_REPRESENTATION ( #160, #144 ) ;
#140 = DIRECTION ( 'NONE',  ( 1.000000000000000000, 0.0000000000000000000, 0.0000000000000000000 ) ) ;
#141 = DIRECTION ( 'NONE',  ( 0.0000000000000000000, 0.0000000000000000000, 1.000000000000000000 ) ) ;
#142 = CARTESIAN_POINT ( 'NONE',  ( 0.0000000000000000000, 0.0000000000000000000, 0.0000000000000000000 ) ) ;
#143 = APPLICATION_CONTEXT ( 'configuration controlled 3d designs of mechanical parts and assemblies' ) ;
#144 = ADVANCED_BREP_SHAPE_REPRESENTATION ( 'PH130000-250', ( #79, #154 ), #145 ) ;
#145 =( GEOMETRIC_REPRESENTATION_CONTEXT ( 3 ) GLOBAL_UNCERTAINTY_ASSIGNED_CONTEXT ( ( #146 ) ) GLOBAL_UNIT_ASSIGNED_CONTEXT ( ( #153, #148, #147 ) ) REPRESENTATION_CONTEXT ( 'NONE', 'WORKASPACE' ) );
#146 = UNCERTAINTY_MEASURE_WITH_UNIT (LENGTH_MEASURE( 1.000000000000000100E-005 ), #153, 'distance_accuracy_value', 'NONE');
#147 =( NAMED_UNIT ( * ) SI_UNIT ( $, .STERADIAN. ) SOLID_ANGLE_UNIT ( ) );
#148 =( NAMED_UNIT ( * ) PLANE_ANGLE_UNIT ( ) SI_UNIT ( $, .RADIAN. ) );
#149 = DIRECTION ( 'NONE',  ( -0.0000000000000000000, -0.0000000000000000000, -1.000000000000000000 ) ) ;
#150 = VECTOR ( 'NONE', #149, 1000.000000000000000 ) ;
#151 = CARTESIAN_POINT ( 'NONE',  ( 1.500000000000000200, 1.836970198721030200E-016, 125.0000000000000000 ) ) ;
#152 = LINE ( 'NONE', #151, #150 ) ;
#153 =( LENGTH_UNIT ( ) NAMED_UNIT ( * ) SI_UNIT ( .MILLI., .METRE. ) );
#154 = AXIS2_PLACEMENT_3D ( 'NONE', #142, #141, #140 ) ;
#155 = DIRECTION ( 'NONE',  ( -1.000000000000000000, 0.0000000000000000000, 0.0000000000000000000 ) ) ;
#156 = DIRECTION ( 'NONE',  ( -0.0000000000000000000, -0.0000000000000000000, -1.000000000000000000 ) ) ;
#157 = CARTESIAN_POINT ( 'NONE',  ( 0.0000000000000000000, 0.0000000000000000000, 125.0000000000000000 ) ) ;
#158 = AXIS2_PLACEMENT_3D ( 'NONE', #157, #156, #155 ) ;
#159 = CYLINDRICAL_SURFACE ( 'NONE', #158, 1.500000000000000200 ) ;
#160 = PRODUCT_DEFINITION_SHAPE ( 'NONE', 'NONE',  #127 ) ;
#161 = PRODUCT_RELATED_PRODUCT_CATEGORY ( 'detail', '', ( #136 ) ) ;
#162 = CC_DESIGN_SECURITY_CLASSIFICATION ( #87, ( #106 ) ) ;
#163 = CC_DESIGN_APPROVAL ( #171, ( #87 ) ) ;
#164 = APPROVAL_DATE_TIME ( #165, #171 ) ;
#165 = DATE_AND_TIME ( #166, #167 ) ;
#166 = CALENDAR_DATE ( 2012, 5, 9 ) ;
#167 = LOCAL_TIME ( 17, 13, 2.000000000000000000, #168 ) ;
#168 = COORDINATED_UNIVERSAL_TIME_OFFSET ( 1, 0, .AHEAD. ) ;
#169 = APPROVAL_PERSON_ORGANIZATION ( #173, #171, #170 ) ;
#170 = APPROVAL_ROLE ( '' ) ;
#171 = APPROVAL ( #172, 'UNSPECIFIED' ) ;
#172 = APPROVAL_STATUS ( 'not_yet_approved' ) ;
#173 = PERSON_AND_ORGANIZATION ( #135, #134 ) ;
#174 = CC_DESIGN_DATE_AND_TIME_ASSIGNMENT ( #80, #175, ( #87 ) ) ;
#175 = DATE_TIME_ROLE ( 'classification_date' ) ;
ENDSEC;
END-ISO-10303-21;
