ISO-10303-21;
HEADER;
FILE_DESCRIPTION (( 'STEP AP203' ),
    '1' );
FILE_NAME ('PH130000-330.STP',
    '2012-09-05T15:13:34',
    ( 'dis05' ),
    ( '' ),
    'SwSTEP 2.0',
    'SolidWorks 2010',
    '' );
FILE_SCHEMA (( 'CONFIG_CONTROL_DESIGN' ));
ENDSEC;

DATA;
#1 = VERTEX_POINT ( 'NONE', #11 ) ;
#2 = EDGE_CURVE ( 'NONE', #3, #1, #16, .T. ) ;
#3 = VERTEX_POINT ( 'NONE', #24 ) ;
#4 = ADVANCED_FACE ( 'NONE', ( #17 ), #44, .F. ) ;
#5 = ORIENTED_EDGE ( 'NONE', *, *, #103, .F. ) ;
#6 = ORIENTED_EDGE ( 'NONE', *, *, #109, .T. ) ;
#7 = ORIENTED_EDGE ( 'NONE', *, *, #110, .T. ) ;
#8 = ADVANCED_FACE ( 'NONE', ( #40 ), #39, .T. ) ;
#9 = CLOSED_SHELL ( 'NONE', ( #97, #108, #8, #4 ) ) ;
#10 = CARTESIAN_POINT ( 'NONE',  ( 0.0000000000000000000, 0.0000000000000000000, -165.0000000000000000 ) ) ;
#11 = CARTESIAN_POINT ( 'NONE',  ( -1.500000000000000200, 0.0000000000000000000, 165.0000000000000000 ) ) ;
#12 =( NAMED_UNIT ( * ) PLANE_ANGLE_UNIT ( ) SI_UNIT ( $, .RADIAN. ) );
#13 = CARTESIAN_POINT ( 'NONE',  ( 0.0000000000000000000, 0.0000000000000000000, 165.0000000000000000 ) ) ;
#14 = UNCERTAINTY_MEASURE_WITH_UNIT (LENGTH_MEASURE( 1.000000000000000100E-005 ), #72, 'distance_accuracy_value', 'NONE');
#15 = VECTOR ( 'NONE', #19, 1000.000000000000000 ) ;
#16 = CIRCLE ( 'NONE', #18, 1.500000000000000200 ) ;
#17 = FACE_OUTER_BOUND ( 'NONE', #100, .T. ) ;
#18 = AXIS2_PLACEMENT_3D ( 'NONE', #13, #21, #20 ) ;
#19 = DIRECTION ( 'NONE',  ( -0.0000000000000000000, -0.0000000000000000000, -1.000000000000000000 ) ) ;
#20 = DIRECTION ( 'NONE',  ( 1.000000000000000000, 0.0000000000000000000, 0.0000000000000000000 ) ) ;
#21 = DIRECTION ( 'NONE',  ( 0.0000000000000000000, 0.0000000000000000000, 1.000000000000000000 ) ) ;
#22 =( NAMED_UNIT ( * ) SI_UNIT ( $, .STERADIAN. ) SOLID_ANGLE_UNIT ( ) );
#23 = AXIS2_PLACEMENT_3D ( 'NONE', #10, #28, #27 ) ;
#24 = CARTESIAN_POINT ( 'NONE',  ( 1.500000000000000200, 1.836970198721030200E-016, 165.0000000000000000 ) ) ;
#25 = CIRCLE ( 'NONE', #23, 1.500000000000000200 ) ;
#26 = LINE ( 'NONE', #29, #15 ) ;
#27 = DIRECTION ( 'NONE',  ( 1.000000000000000000, 0.0000000000000000000, 0.0000000000000000000 ) ) ;
#28 = DIRECTION ( 'NONE',  ( 0.0000000000000000000, 0.0000000000000000000, 1.000000000000000000 ) ) ;
#29 = CARTESIAN_POINT ( 'NONE',  ( -1.500000000000000200, 0.0000000000000000000, 165.0000000000000000 ) ) ;
#30 = CARTESIAN_POINT ( 'NONE',  ( 0.0000000000000000000, 0.0000000000000000000, 165.0000000000000000 ) ) ;
#31 = DIRECTION ( 'NONE',  ( -1.000000000000000000, 0.0000000000000000000, 0.0000000000000000000 ) ) ;
#32 = DIRECTION ( 'NONE',  ( 1.000000000000000000, 0.0000000000000000000, -0.0000000000000000000 ) ) ;
#33 = DIRECTION ( 'NONE',  ( 0.0000000000000000000, 0.0000000000000000000, 1.000000000000000000 ) ) ;
#34 = CARTESIAN_POINT ( 'NONE',  ( -1.500000000000000200, 0.0000000000000000000, -165.0000000000000000 ) ) ;
#35 =( GEOMETRIC_REPRESENTATION_CONTEXT ( 3 ) GLOBAL_UNCERTAINTY_ASSIGNED_CONTEXT ( ( #14 ) ) GLOBAL_UNIT_ASSIGNED_CONTEXT ( ( #72, #12, #22 ) ) REPRESENTATION_CONTEXT ( 'NONE', 'WORKASPACE' ) );
#36 = DIRECTION ( 'NONE',  ( 1.000000000000000000, 0.0000000000000000000, -0.0000000000000000000 ) ) ;
#37 = AXIS2_PLACEMENT_3D ( 'NONE', #30, #33, #32 ) ;
#38 = CARTESIAN_POINT ( 'NONE',  ( 0.0000000000000000000, 0.0000000000000000000, -165.0000000000000000 ) ) ;
#39 = PLANE ( 'NONE',  #37 ) ;
#40 = FACE_OUTER_BOUND ( 'NONE', #96, .T. ) ;
#41 = DIRECTION ( 'NONE',  ( -0.0000000000000000000, -0.0000000000000000000, -1.000000000000000000 ) ) ;
#42 = CARTESIAN_POINT ( 'NONE',  ( 0.0000000000000000000, 0.0000000000000000000, 165.0000000000000000 ) ) ;
#43 = AXIS2_PLACEMENT_3D ( 'NONE', #42, #41, #31 ) ;
#44 = PLANE ( 'NONE',  #46 ) ;
#45 = CYLINDRICAL_SURFACE ( 'NONE', #43, 1.500000000000000200 ) ;
#46 = AXIS2_PLACEMENT_3D ( 'NONE', #38, #47, #36 ) ;
#47 = DIRECTION ( 'NONE',  ( 0.0000000000000000000, 0.0000000000000000000, 1.000000000000000000 ) ) ;
#48 = ADVANCED_BREP_SHAPE_REPRESENTATION ( 'PH130000-330', ( #121, #80 ), #35 ) ;
#49 = FACE_OUTER_BOUND ( 'NONE', #92, .T. ) ;
#50 = CARTESIAN_POINT ( 'NONE',  ( 1.500000000000000200, 1.836970198721030200E-016, -165.0000000000000000 ) ) ;
#51 = APPLICATION_PROTOCOL_DEFINITION ( 'international standard', 'config_control_design', 1994, #52 ) ;
#52 = APPLICATION_CONTEXT ( 'configuration controlled 3d designs of mechanical parts and assemblies' ) ;
#53 = FACE_OUTER_BOUND ( 'NONE', #106, .T. ) ;
#54 = CC_DESIGN_PERSON_AND_ORGANIZATION_ASSIGNMENT ( #84, #83, ( #87 ) ) ;
#55 = DIRECTION ( 'NONE',  ( -0.0000000000000000000, -0.0000000000000000000, -1.000000000000000000 ) ) ;
#56 = VECTOR ( 'NONE', #55, 1000.000000000000000 ) ;
#57 = CARTESIAN_POINT ( 'NONE',  ( 1.500000000000000200, 1.836970198721030200E-016, 165.0000000000000000 ) ) ;
#58 = LINE ( 'NONE', #57, #56 ) ;
#59 = DIRECTION ( 'NONE',  ( 0.0000000000000000000, 0.0000000000000000000, 1.000000000000000000 ) ) ;
#60 = AXIS2_PLACEMENT_3D ( 'NONE', #70, #68, #67 ) ;
#61 = CIRCLE ( 'NONE', #76, 1.500000000000000200 ) ;
#62 = DIRECTION ( 'NONE',  ( -0.0000000000000000000, -0.0000000000000000000, -1.000000000000000000 ) ) ;
#63 = CARTESIAN_POINT ( 'NONE',  ( 0.0000000000000000000, 0.0000000000000000000, 165.0000000000000000 ) ) ;
#64 = CARTESIAN_POINT ( 'NONE',  ( 0.0000000000000000000, 0.0000000000000000000, 165.0000000000000000 ) ) ;
#65 = PERSON_AND_ORGANIZATION ( #86, #85 ) ;
#66 = DIRECTION ( 'NONE',  ( -1.000000000000000000, 0.0000000000000000000, 0.0000000000000000000 ) ) ;
#67 = DIRECTION ( 'NONE',  ( 1.000000000000000000, 0.0000000000000000000, 0.0000000000000000000 ) ) ;
#68 = DIRECTION ( 'NONE',  ( 0.0000000000000000000, 0.0000000000000000000, 1.000000000000000000 ) ) ;
#69 = DIRECTION ( 'NONE',  ( 1.000000000000000000, 0.0000000000000000000, 0.0000000000000000000 ) ) ;
#70 = CARTESIAN_POINT ( 'NONE',  ( 0.0000000000000000000, 0.0000000000000000000, -165.0000000000000000 ) ) ;
#71 = CIRCLE ( 'NONE', #60, 1.500000000000000200 ) ;
#72 =( LENGTH_UNIT ( ) NAMED_UNIT ( * ) SI_UNIT ( .MILLI., .METRE. ) );
#73 = AXIS2_PLACEMENT_3D ( 'NONE', #63, #62, #66 ) ;
#74 = PRODUCT_DEFINITION ( 'UNKNOWN', '', #145, #75 ) ;
#75 = DESIGN_CONTEXT ( 'detailed design', #52, 'design' ) ;
#76 = AXIS2_PLACEMENT_3D ( 'NONE', #64, #59, #69 ) ;
#77 = CYLINDRICAL_SURFACE ( 'NONE', #73, 1.500000000000000200 ) ;
#78 = CARTESIAN_POINT ( 'NONE',  ( 0.0000000000000000000, 0.0000000000000000000, 0.0000000000000000000 ) ) ;
#79 = DIRECTION ( 'NONE',  ( 0.0000000000000000000, 0.0000000000000000000, 1.000000000000000000 ) ) ;
#80 = AXIS2_PLACEMENT_3D ( 'NONE', #78, #79, #81 ) ;
#81 = DIRECTION ( 'NONE',  ( 1.000000000000000000, 0.0000000000000000000, 0.0000000000000000000 ) ) ;
#82 = APPLICATION_CONTEXT ( 'configuration controlled 3d designs of mechanical parts and assemblies' ) ;
#83 = PERSON_AND_ORGANIZATION_ROLE ( 'design_owner' ) ;
#84 = PERSON_AND_ORGANIZATION ( #86, #85 ) ;
#85 = ORGANIZATION ( 'UNSPECIFIED', 'UNSPECIFIED', '' ) ;
#86 = PERSON ( 'UNSPECIFIED', 'UNSPECIFIED', 'UNSPECIFIED', ('UNSPECIFIED'), ('UNSPECIFIED'), ('UNSPECIFIED') ) ;
#87 = PRODUCT ( 'PH130000-330', 'PH130000-330', '', ( #88 ) ) ;
#88 = MECHANICAL_CONTEXT ( 'NONE', #82, 'mechanical' ) ;
#89 = APPLICATION_PROTOCOL_DEFINITION ( 'international standard', 'config_control_design', 1994, #82 ) ;
#90 = PERSON_AND_ORGANIZATION ( #86, #85 ) ;
#91 = EDGE_CURVE ( 'NONE', #3, #95, #58, .T. ) ;
#92 = EDGE_LOOP ( 'NONE', ( #99, #102, #101, #107 ) ) ;
#93 = COORDINATED_UNIVERSAL_TIME_OFFSET ( 1, 0, .AHEAD. ) ;
#94 = APPROVAL ( #122, 'UNSPECIFIED' ) ;
#95 = VERTEX_POINT ( 'NONE', #50 ) ;
#96 = EDGE_LOOP ( 'NONE', ( #6, #104 ) ) ;
#97 = ADVANCED_FACE ( 'NONE', ( #49 ), #45, .T. ) ;
#98 = VERTEX_POINT ( 'NONE', #34 ) ;
#99 = ORIENTED_EDGE ( 'NONE', *, *, #2, .F. ) ;
#100 = EDGE_LOOP ( 'NONE', ( #111, #5 ) ) ;
#101 = ORIENTED_EDGE ( 'NONE', *, *, #103, .T. ) ;
#102 = ORIENTED_EDGE ( 'NONE', *, *, #91, .T. ) ;
#103 = EDGE_CURVE ( 'NONE', #95, #98, #25, .T. ) ;
#104 = ORIENTED_EDGE ( 'NONE', *, *, #2, .T. ) ;
#105 = EDGE_CURVE ( 'NONE', #1, #98, #26, .T. ) ;
#106 = EDGE_LOOP ( 'NONE', ( #123, #115, #114, #7 ) ) ;
#107 = ORIENTED_EDGE ( 'NONE', *, *, #105, .F. ) ;
#108 = ADVANCED_FACE ( 'NONE', ( #53 ), #77, .T. ) ;
#109 = EDGE_CURVE ( 'NONE', #1, #3, #61, .T. ) ;
#110 = EDGE_CURVE ( 'NONE', #98, #95, #71, .T. ) ;
#111 = ORIENTED_EDGE ( 'NONE', *, *, #110, .F. ) ;
#112 = CC_DESIGN_PERSON_AND_ORGANIZATION_ASSIGNMENT ( #90, #113, ( #74 ) ) ;
#113 = PERSON_AND_ORGANIZATION_ROLE ( 'creator' ) ;
#114 = ORIENTED_EDGE ( 'NONE', *, *, #105, .T. ) ;
#115 = ORIENTED_EDGE ( 'NONE', *, *, #109, .F. ) ;
#116 = CC_DESIGN_APPROVAL ( #94, ( #74 ) ) ;
#117 = CALENDAR_DATE ( 2012, 5, 9 ) ;
#118 = APPROVAL_PERSON_ORGANIZATION ( #65, #94, #125 ) ;
#119 = DATE_AND_TIME ( #117, #120 ) ;
#120 = LOCAL_TIME ( 17, 13, 34.00000000000000000, #93 ) ;
#121 = MANIFOLD_SOLID_BREP ( 'Saliente-Extruir1', #9 ) ;
#122 = APPROVAL_STATUS ( 'not_yet_approved' ) ;
#123 = ORIENTED_EDGE ( 'NONE', *, *, #91, .F. ) ;
#124 = APPROVAL_DATE_TIME ( #119, #94 ) ;
#125 = APPROVAL_ROLE ( '' ) ;
#126 = DATE_AND_TIME ( #138, #160 ) ;
#127 = CC_DESIGN_SECURITY_CLASSIFICATION ( #148, ( #145 ) ) ;
#128 = CC_DESIGN_APPROVAL ( #164, ( #148 ) ) ;
#129 = APPROVAL_DATE_TIME ( #130, #164 ) ;
#130 = DATE_AND_TIME ( #131, #132 ) ;
#131 = CALENDAR_DATE ( 2012, 5, 9 ) ;
#132 = LOCAL_TIME ( 17, 13, 34.00000000000000000, #133 ) ;
#133 = COORDINATED_UNIVERSAL_TIME_OFFSET ( 1, 0, .AHEAD. ) ;
#134 = APPROVAL_PERSON_ORGANIZATION ( #166, #164, #163 ) ;
#135 = PERSON_AND_ORGANIZATION_ROLE ( 'creator' ) ;
#136 = PERSON_AND_ORGANIZATION ( #86, #85 ) ;
#137 = SHAPE_DEFINITION_REPRESENTATION ( #139, #48 ) ;
#138 = CALENDAR_DATE ( 2012, 5, 9 ) ;
#139 = PRODUCT_DEFINITION_SHAPE ( 'NONE', 'NONE',  #74 ) ;
#140 = PRODUCT_RELATED_PRODUCT_CATEGORY ( 'detail', '', ( #87 ) ) ;
#141 = COORDINATED_UNIVERSAL_TIME_OFFSET ( 1, 0, .AHEAD. ) ;
#142 = DATE_AND_TIME ( #174, #143 ) ;
#143 = LOCAL_TIME ( 17, 13, 34.00000000000000000, #144 ) ;
#144 = COORDINATED_UNIVERSAL_TIME_OFFSET ( 1, 0, .AHEAD. ) ;
#145 = PRODUCT_DEFINITION_FORMATION_WITH_SPECIFIED_SOURCE ( 'ANY', '', #87, .NOT_KNOWN. ) ;
#146 = PERSON_AND_ORGANIZATION_ROLE ( 'classification_officer' ) ;
#147 = PERSON_AND_ORGANIZATION ( #86, #85 ) ;
#148 = SECURITY_CLASSIFICATION ( '', '', #149 ) ;
#149 = SECURITY_CLASSIFICATION_LEVEL ( 'unclassified' ) ;
#150 = CC_DESIGN_PERSON_AND_ORGANIZATION_ASSIGNMENT ( #152, #151, ( #145 ) ) ;
#151 = PERSON_AND_ORGANIZATION_ROLE ( 'design_supplier' ) ;
#152 = PERSON_AND_ORGANIZATION ( #86, #85 ) ;
#153 = CC_DESIGN_PERSON_AND_ORGANIZATION_ASSIGNMENT ( #136, #135, ( #145 ) ) ;
#154 = DATE_TIME_ROLE ( 'creation_date' ) ;
#155 = DATE_AND_TIME ( #156, #157 ) ;
#156 = CALENDAR_DATE ( 2012, 5, 9 ) ;
#157 = LOCAL_TIME ( 17, 13, 34.00000000000000000, #158 ) ;
#158 = COORDINATED_UNIVERSAL_TIME_OFFSET ( 1, 0, .AHEAD. ) ;
#159 = CC_DESIGN_PERSON_AND_ORGANIZATION_ASSIGNMENT ( #147, #146, ( #148 ) ) ;
#160 = LOCAL_TIME ( 17, 13, 34.00000000000000000, #141 ) ;
#161 = APPROVAL_ROLE ( '' ) ;
#162 = APPROVAL_STATUS ( 'not_yet_approved' ) ;
#163 = APPROVAL_ROLE ( '' ) ;
#164 = APPROVAL ( #165, 'UNSPECIFIED' ) ;
#165 = APPROVAL_STATUS ( 'not_yet_approved' ) ;
#166 = PERSON_AND_ORGANIZATION ( #86, #85 ) ;
#167 = CC_DESIGN_DATE_AND_TIME_ASSIGNMENT ( #155, #168, ( #148 ) ) ;
#168 = DATE_TIME_ROLE ( 'classification_date' ) ;
#169 = APPROVAL_PERSON_ORGANIZATION ( #171, #170, #161 ) ;
#170 = APPROVAL ( #162, 'UNSPECIFIED' ) ;
#171 = PERSON_AND_ORGANIZATION ( #86, #85 ) ;
#172 = CC_DESIGN_APPROVAL ( #170, ( #145 ) ) ;
#173 = APPROVAL_DATE_TIME ( #142, #170 ) ;
#174 = CALENDAR_DATE ( 2012, 5, 9 ) ;
#175 = CC_DESIGN_DATE_AND_TIME_ASSIGNMENT ( #126, #154, ( #74 ) ) ;
ENDSEC;
END-ISO-10303-21;
