ISO-10303-21;
HEADER;
FILE_DESCRIPTION (( 'STEP AP203' ),
    '1' );
FILE_NAME ('PH150000-250.STP',
    '2012-09-05T15:16:37',
    ( 'dis05' ),
    ( '' ),
    'SwSTEP 2.0',
    'SolidWorks 2010',
    '' );
FILE_SCHEMA (( 'CONFIG_CONTROL_DESIGN' ));
ENDSEC;

DATA;
#1 = EDGE_LOOP ( 'NONE', ( #20, #19, #13, #17 ) ) ;
#2 = EDGE_LOOP ( 'NONE', ( #28, #16, #48, #32 ) ) ;
#3 = DIRECTION ( 'NONE',  ( 0.0000000000000000000, 0.0000000000000000000, 1.000000000000000000 ) ) ;
#4 = AXIS2_PLACEMENT_3D ( 'NONE', #9, #3, #15 ) ;
#5 = EDGE_CURVE ( 'NONE', #18, #11, #41, .T. ) ;
#6 = ADVANCED_FACE ( 'NONE', ( #7 ), #10, .T. ) ;
#7 = FACE_OUTER_BOUND ( 'NONE', #12, .T. ) ;
#8 = EDGE_CURVE ( 'NONE', #18, #30, #49, .T. ) ;
#9 = CARTESIAN_POINT ( 'NONE',  ( 0.0000000000000000000, 0.0000000000000000000, 125.0000000000000000 ) ) ;
#10 = PLANE ( 'NONE',  #4 ) ;
#11 = VERTEX_POINT ( 'NONE', #64 ) ;
#12 = EDGE_LOOP ( 'NONE', ( #33, #47 ) ) ;
#13 = ORIENTED_EDGE ( 'NONE', *, *, #14, .T. ) ;
#14 = EDGE_CURVE ( 'NONE', #29, #30, #59, .T. ) ;
#15 = DIRECTION ( 'NONE',  ( 1.000000000000000000, 0.0000000000000000000, -0.0000000000000000000 ) ) ;
#16 = ORIENTED_EDGE ( 'NONE', *, *, #5, .F. ) ;
#17 = ORIENTED_EDGE ( 'NONE', *, *, #8, .F. ) ;
#18 = VERTEX_POINT ( 'NONE', #60 ) ;
#19 = ORIENTED_EDGE ( 'NONE', *, *, #21, .T. ) ;
#20 = ORIENTED_EDGE ( 'NONE', *, *, #27, .F. ) ;
#21 = EDGE_CURVE ( 'NONE', #11, #29, #53, .T. ) ;
#22 = ADVANCED_FACE ( 'NONE', ( #54 ), #43, .T. ) ;
#23 = ADVANCED_FACE ( 'NONE', ( #74 ), #93, .T. ) ;
#24 = CLOSED_SHELL ( 'NONE', ( #22, #23, #6, #44 ) ) ;
#25 = ORIENTED_EDGE ( 'NONE', *, *, #46, .F. ) ;
#26 = ORIENTED_EDGE ( 'NONE', *, *, #14, .F. ) ;
#27 = EDGE_CURVE ( 'NONE', #11, #18, #99, .T. ) ;
#28 = ORIENTED_EDGE ( 'NONE', *, *, #21, .F. ) ;
#29 = VERTEX_POINT ( 'NONE', #122 ) ;
#30 = VERTEX_POINT ( 'NONE', #92 ) ;
#31 = MANIFOLD_SOLID_BREP ( 'Saliente-Extruir1', #24 ) ;
#32 = ORIENTED_EDGE ( 'NONE', *, *, #46, .T. ) ;
#33 = ORIENTED_EDGE ( 'NONE', *, *, #5, .T. ) ;
#34 = CARTESIAN_POINT ( 'NONE',  ( 0.0000000000000000000, 0.0000000000000000000, 125.0000000000000000 ) ) ;
#35 = DIRECTION ( 'NONE',  ( -1.000000000000000000, 0.0000000000000000000, 0.0000000000000000000 ) ) ;
#36 = EDGE_LOOP ( 'NONE', ( #25, #26 ) ) ;
#37 = DIRECTION ( 'NONE',  ( -0.0000000000000000000, -0.0000000000000000000, -1.000000000000000000 ) ) ;
#38 = CARTESIAN_POINT ( 'NONE',  ( 0.0000000000000000000, 0.0000000000000000000, 125.0000000000000000 ) ) ;
#39 = DIRECTION ( 'NONE',  ( 1.000000000000000000, 0.0000000000000000000, 0.0000000000000000000 ) ) ;
#40 = AXIS2_PLACEMENT_3D ( 'NONE', #34, #45, #39 ) ;
#41 = CIRCLE ( 'NONE', #40, 2.500000000000000000 ) ;
#42 = AXIS2_PLACEMENT_3D ( 'NONE', #38, #37, #35 ) ;
#43 = CYLINDRICAL_SURFACE ( 'NONE', #42, 2.500000000000000000 ) ;
#44 = ADVANCED_FACE ( 'NONE', ( #96 ), #128, .F. ) ;
#45 = DIRECTION ( 'NONE',  ( 0.0000000000000000000, 0.0000000000000000000, 1.000000000000000000 ) ) ;
#46 = EDGE_CURVE ( 'NONE', #30, #29, #66, .T. ) ;
#47 = ORIENTED_EDGE ( 'NONE', *, *, #27, .T. ) ;
#48 = ORIENTED_EDGE ( 'NONE', *, *, #8, .T. ) ;
#49 = LINE ( 'NONE', #63, #62 ) ;
#50 = DIRECTION ( 'NONE',  ( -0.0000000000000000000, -0.0000000000000000000, -1.000000000000000000 ) ) ;
#51 = VECTOR ( 'NONE', #50, 1000.000000000000000 ) ;
#52 = CARTESIAN_POINT ( 'NONE',  ( 2.500000000000000000, 3.061616997868383100E-016, 125.0000000000000000 ) ) ;
#53 = LINE ( 'NONE', #52, #51 ) ;
#54 = FACE_OUTER_BOUND ( 'NONE', #1, .T. ) ;
#55 = DIRECTION ( 'NONE',  ( 1.000000000000000000, 0.0000000000000000000, 0.0000000000000000000 ) ) ;
#56 = DIRECTION ( 'NONE',  ( 0.0000000000000000000, 0.0000000000000000000, 1.000000000000000000 ) ) ;
#57 = CARTESIAN_POINT ( 'NONE',  ( 0.0000000000000000000, 0.0000000000000000000, -125.0000000000000000 ) ) ;
#58 = AXIS2_PLACEMENT_3D ( 'NONE', #57, #56, #55 ) ;
#59 = CIRCLE ( 'NONE', #58, 2.500000000000000000 ) ;
#60 = CARTESIAN_POINT ( 'NONE',  ( -2.500000000000000000, 0.0000000000000000000, 125.0000000000000000 ) ) ;
#61 = DIRECTION ( 'NONE',  ( -0.0000000000000000000, -0.0000000000000000000, -1.000000000000000000 ) ) ;
#62 = VECTOR ( 'NONE', #61, 1000.000000000000000 ) ;
#63 = CARTESIAN_POINT ( 'NONE',  ( -2.500000000000000000, 0.0000000000000000000, 125.0000000000000000 ) ) ;
#64 = CARTESIAN_POINT ( 'NONE',  ( 2.500000000000000000, 3.061616997868383100E-016, 125.0000000000000000 ) ) ;
#65 =( LENGTH_UNIT ( ) NAMED_UNIT ( * ) SI_UNIT ( .MILLI., .METRE. ) );
#66 = CIRCLE ( 'NONE', #133, 2.500000000000000000 ) ;
#67 = PERSON ( 'UNSPECIFIED', 'UNSPECIFIED', 'UNSPECIFIED', ('UNSPECIFIED'), ('UNSPECIFIED'), ('UNSPECIFIED') ) ;
#68 = PRODUCT ( 'PH150000-250', 'PH150000-250', '', ( #69 ) ) ;
#69 = MECHANICAL_CONTEXT ( 'NONE', #161, 'mechanical' ) ;
#70 = APPLICATION_PROTOCOL_DEFINITION ( 'international standard', 'config_control_design', 1994, #161 ) ;
#71 = PERSON_AND_ORGANIZATION_ROLE ( 'design_owner' ) ;
#72 = PERSON_AND_ORGANIZATION ( #67, #73 ) ;
#73 = ORGANIZATION ( 'UNSPECIFIED', 'UNSPECIFIED', '' ) ;
#74 = FACE_OUTER_BOUND ( 'NONE', #2, .T. ) ;
#75 = UNCERTAINTY_MEASURE_WITH_UNIT (LENGTH_MEASURE( 1.000000000000000100E-005 ), #65, 'distance_accuracy_value', 'NONE');
#76 =( NAMED_UNIT ( * ) SI_UNIT ( $, .STERADIAN. ) SOLID_ANGLE_UNIT ( ) );
#77 = PRODUCT_DEFINITION_SHAPE ( 'NONE', 'NONE',  #114 ) ;
#78 = PRODUCT_RELATED_PRODUCT_CATEGORY ( 'detail', '', ( #68 ) ) ;
#79 = CC_DESIGN_SECURITY_CLASSIFICATION ( #145, ( #168 ) ) ;
#80 = CC_DESIGN_APPROVAL ( #88, ( #145 ) ) ;
#81 = APPROVAL_DATE_TIME ( #82, #88 ) ;
#82 = DATE_AND_TIME ( #83, #84 ) ;
#83 = CALENDAR_DATE ( 2012, 5, 9 ) ;
#84 = LOCAL_TIME ( 17, 16, 37.00000000000000000, #85 ) ;
#85 = COORDINATED_UNIVERSAL_TIME_OFFSET ( 1, 0, .AHEAD. ) ;
#86 = APPROVAL_PERSON_ORGANIZATION ( #90, #88, #87 ) ;
#87 = APPROVAL_ROLE ( '' ) ;
#88 = APPROVAL ( #89, 'UNSPECIFIED' ) ;
#89 = APPROVAL_STATUS ( 'not_yet_approved' ) ;
#90 = PERSON_AND_ORGANIZATION ( #67, #73 ) ;
#91 = CC_DESIGN_DATE_AND_TIME_ASSIGNMENT ( #138, #137, ( #145 ) ) ;
#92 = CARTESIAN_POINT ( 'NONE',  ( -2.500000000000000000, 0.0000000000000000000, -125.0000000000000000 ) ) ;
#93 = CYLINDRICAL_SURFACE ( 'NONE', #100, 2.500000000000000000 ) ;
#94 = ADVANCED_BREP_SHAPE_REPRESENTATION ( 'PH150000-250', ( #31, #134 ), #95 ) ;
#95 =( GEOMETRIC_REPRESENTATION_CONTEXT ( 3 ) GLOBAL_UNCERTAINTY_ASSIGNED_CONTEXT ( ( #75 ) ) GLOBAL_UNIT_ASSIGNED_CONTEXT ( ( #65, #119, #76 ) ) REPRESENTATION_CONTEXT ( 'NONE', 'WORKASPACE' ) );
#96 = FACE_OUTER_BOUND ( 'NONE', #36, .T. ) ;
#97 = CARTESIAN_POINT ( 'NONE',  ( 0.0000000000000000000, 0.0000000000000000000, 125.0000000000000000 ) ) ;
#98 = AXIS2_PLACEMENT_3D ( 'NONE', #130, #129, #135 ) ;
#99 = CIRCLE ( 'NONE', #125, 2.500000000000000000 ) ;
#100 = AXIS2_PLACEMENT_3D ( 'NONE', #132, #127, #126 ) ;
#101 = PERSON_AND_ORGANIZATION_ROLE ( 'creator' ) ;
#102 = PERSON_AND_ORGANIZATION ( #67, #73 ) ;
#103 = CC_DESIGN_APPROVAL ( #111, ( #114 ) ) ;
#104 = APPROVAL_DATE_TIME ( #105, #111 ) ;
#105 = DATE_AND_TIME ( #106, #107 ) ;
#106 = CALENDAR_DATE ( 2012, 5, 9 ) ;
#107 = LOCAL_TIME ( 17, 16, 37.00000000000000000, #108 ) ;
#108 = COORDINATED_UNIVERSAL_TIME_OFFSET ( 1, 0, .AHEAD. ) ;
#109 = APPROVAL_PERSON_ORGANIZATION ( #113, #111, #110 ) ;
#110 = APPROVAL_ROLE ( '' ) ;
#111 = APPROVAL ( #112, 'UNSPECIFIED' ) ;
#112 = APPROVAL_STATUS ( 'not_yet_approved' ) ;
#113 = PERSON_AND_ORGANIZATION ( #67, #73 ) ;
#114 = PRODUCT_DEFINITION ( 'UNKNOWN', '', #168, #115 ) ;
#115 = DESIGN_CONTEXT ( 'detailed design', #117, 'design' ) ;
#116 = APPLICATION_PROTOCOL_DEFINITION ( 'international standard', 'config_control_design', 1994, #117 ) ;
#117 = APPLICATION_CONTEXT ( 'configuration controlled 3d designs of mechanical parts and assemblies' ) ;
#118 = CC_DESIGN_PERSON_AND_ORGANIZATION_ASSIGNMENT ( #72, #71, ( #68 ) ) ;
#119 =( NAMED_UNIT ( * ) PLANE_ANGLE_UNIT ( ) SI_UNIT ( $, .RADIAN. ) );
#120 = DIRECTION ( 'NONE',  ( 1.000000000000000000, 0.0000000000000000000, 0.0000000000000000000 ) ) ;
#121 = DIRECTION ( 'NONE',  ( 0.0000000000000000000, 0.0000000000000000000, 1.000000000000000000 ) ) ;
#122 = CARTESIAN_POINT ( 'NONE',  ( 2.500000000000000000, 3.061616997868383100E-016, -125.0000000000000000 ) ) ;
#123 = DIRECTION ( 'NONE',  ( 1.000000000000000000, 0.0000000000000000000, 0.0000000000000000000 ) ) ;
#124 = DIRECTION ( 'NONE',  ( 0.0000000000000000000, 0.0000000000000000000, 1.000000000000000000 ) ) ;
#125 = AXIS2_PLACEMENT_3D ( 'NONE', #97, #124, #123 ) ;
#126 = DIRECTION ( 'NONE',  ( -1.000000000000000000, 0.0000000000000000000, 0.0000000000000000000 ) ) ;
#127 = DIRECTION ( 'NONE',  ( -0.0000000000000000000, -0.0000000000000000000, -1.000000000000000000 ) ) ;
#128 = PLANE ( 'NONE',  #98 ) ;
#129 = DIRECTION ( 'NONE',  ( 0.0000000000000000000, 0.0000000000000000000, 1.000000000000000000 ) ) ;
#130 = CARTESIAN_POINT ( 'NONE',  ( 0.0000000000000000000, 0.0000000000000000000, -125.0000000000000000 ) ) ;
#131 = CARTESIAN_POINT ( 'NONE',  ( 0.0000000000000000000, 0.0000000000000000000, -125.0000000000000000 ) ) ;
#132 = CARTESIAN_POINT ( 'NONE',  ( 0.0000000000000000000, 0.0000000000000000000, 125.0000000000000000 ) ) ;
#133 = AXIS2_PLACEMENT_3D ( 'NONE', #131, #121, #120 ) ;
#134 = AXIS2_PLACEMENT_3D ( 'NONE', #163, #162, #160 ) ;
#135 = DIRECTION ( 'NONE',  ( 1.000000000000000000, 0.0000000000000000000, -0.0000000000000000000 ) ) ;
#136 = SHAPE_DEFINITION_REPRESENTATION ( #77, #94 ) ;
#137 = DATE_TIME_ROLE ( 'classification_date' ) ;
#138 = DATE_AND_TIME ( #139, #140 ) ;
#139 = CALENDAR_DATE ( 2012, 5, 9 ) ;
#140 = LOCAL_TIME ( 17, 16, 37.00000000000000000, #141 ) ;
#141 = COORDINATED_UNIVERSAL_TIME_OFFSET ( 1, 0, .AHEAD. ) ;
#142 = CC_DESIGN_PERSON_AND_ORGANIZATION_ASSIGNMENT ( #144, #143, ( #145 ) ) ;
#143 = PERSON_AND_ORGANIZATION_ROLE ( 'classification_officer' ) ;
#144 = PERSON_AND_ORGANIZATION ( #67, #73 ) ;
#145 = SECURITY_CLASSIFICATION ( '', '', #146 ) ;
#146 = SECURITY_CLASSIFICATION_LEVEL ( 'unclassified' ) ;
#147 = CC_DESIGN_PERSON_AND_ORGANIZATION_ASSIGNMENT ( #149, #148, ( #168 ) ) ;
#148 = PERSON_AND_ORGANIZATION_ROLE ( 'design_supplier' ) ;
#149 = PERSON_AND_ORGANIZATION ( #67, #73 ) ;
#150 = CC_DESIGN_PERSON_AND_ORGANIZATION_ASSIGNMENT ( #152, #151, ( #168 ) ) ;
#151 = PERSON_AND_ORGANIZATION_ROLE ( 'creator' ) ;
#152 = PERSON_AND_ORGANIZATION ( #67, #73 ) ;
#153 = CC_DESIGN_APPROVAL ( #165, ( #168 ) ) ;
#154 = APPROVAL_DATE_TIME ( #155, #165 ) ;
#155 = DATE_AND_TIME ( #156, #157 ) ;
#156 = CALENDAR_DATE ( 2012, 5, 9 ) ;
#157 = LOCAL_TIME ( 17, 16, 37.00000000000000000, #158 ) ;
#158 = COORDINATED_UNIVERSAL_TIME_OFFSET ( 1, 0, .AHEAD. ) ;
#159 = APPROVAL_PERSON_ORGANIZATION ( #167, #165, #164 ) ;
#160 = DIRECTION ( 'NONE',  ( 1.000000000000000000, 0.0000000000000000000, 0.0000000000000000000 ) ) ;
#161 = APPLICATION_CONTEXT ( 'configuration controlled 3d designs of mechanical parts and assemblies' ) ;
#162 = DIRECTION ( 'NONE',  ( 0.0000000000000000000, 0.0000000000000000000, 1.000000000000000000 ) ) ;
#163 = CARTESIAN_POINT ( 'NONE',  ( 0.0000000000000000000, 0.0000000000000000000, 0.0000000000000000000 ) ) ;
#164 = APPROVAL_ROLE ( '' ) ;
#165 = APPROVAL ( #166, 'UNSPECIFIED' ) ;
#166 = APPROVAL_STATUS ( 'not_yet_approved' ) ;
#167 = PERSON_AND_ORGANIZATION ( #67, #73 ) ;
#168 = PRODUCT_DEFINITION_FORMATION_WITH_SPECIFIED_SOURCE ( 'ANY', '', #68, .NOT_KNOWN. ) ;
#169 = CC_DESIGN_DATE_AND_TIME_ASSIGNMENT ( #171, #170, ( #114 ) ) ;
#170 = DATE_TIME_ROLE ( 'creation_date' ) ;
#171 = DATE_AND_TIME ( #172, #173 ) ;
#172 = CALENDAR_DATE ( 2012, 5, 9 ) ;
#173 = LOCAL_TIME ( 17, 16, 37.00000000000000000, #174 ) ;
#174 = COORDINATED_UNIVERSAL_TIME_OFFSET ( 1, 0, .AHEAD. ) ;
#175 = CC_DESIGN_PERSON_AND_ORGANIZATION_ASSIGNMENT ( #102, #101, ( #114 ) ) ;
ENDSEC;
END-ISO-10303-21;
