ISO-10303-21;
HEADER;
FILE_DESCRIPTION (( 'STEP AP203' ),
    '1' );
FILE_NAME ('PH150000-330.STP',
    '2012-09-05T15:16:51',
    ( 'dis05' ),
    ( '' ),
    'SwSTEP 2.0',
    'SolidWorks 2010',
    '' );
FILE_SCHEMA (( 'CONFIG_CONTROL_DESIGN' ));
ENDSEC;

DATA;
#1 = ORIENTED_EDGE ( 'NONE', *, *, #12, .T. ) ;
#2 = VERTEX_POINT ( 'NONE', #35 ) ;
#3 = ORIENTED_EDGE ( 'NONE', *, *, #22, .T. ) ;
#4 = EDGE_LOOP ( 'NONE', ( #11, #14, #25, #21 ) ) ;
#5 = ADVANCED_FACE ( 'NONE', ( #34 ), #39, .T. ) ;
#6 = MANIFOLD_SOLID_BREP ( 'Saliente-Extruir1', #28 ) ;
#7 = VERTEX_POINT ( 'NONE', #92 ) ;
#8 = ORIENTED_EDGE ( 'NONE', *, *, #13, .F. ) ;
#9 = VERTEX_POINT ( 'NONE', #93 ) ;
#10 = VERTEX_POINT ( 'NONE', #125 ) ;
#11 = ORIENTED_EDGE ( 'NONE', *, *, #12, .F. ) ;
#12 = EDGE_CURVE ( 'NONE', #9, #2, #90, .T. ) ;
#13 = EDGE_CURVE ( 'NONE', #9, #10, #115, .T. ) ;
#14 = ORIENTED_EDGE ( 'NONE', *, *, #13, .T. ) ;
#15 = ADVANCED_FACE ( 'NONE', ( #116 ), #103, .T. ) ;
#16 = EDGE_LOOP ( 'NONE', ( #3, #1 ) ) ;
#17 = ORIENTED_EDGE ( 'NONE', *, *, #26, .T. ) ;
#18 = ORIENTED_EDGE ( 'NONE', *, *, #22, .F. ) ;
#19 = ORIENTED_EDGE ( 'NONE', *, *, #20, .T. ) ;
#20 = EDGE_CURVE ( 'NONE', #7, #10, #114, .T. ) ;
#21 = ORIENTED_EDGE ( 'NONE', *, *, #26, .F. ) ;
#22 = EDGE_CURVE ( 'NONE', #2, #9, #104, .T. ) ;
#23 = ADVANCED_FACE ( 'NONE', ( #97 ), #106, .T. ) ;
#24 = EDGE_LOOP ( 'NONE', ( #8, #18, #17, #19 ) ) ;
#25 = ORIENTED_EDGE ( 'NONE', *, *, #27, .T. ) ;
#26 = EDGE_CURVE ( 'NONE', #2, #7, #107, .T. ) ;
#27 = EDGE_CURVE ( 'NONE', #10, #7, #100, .T. ) ;
#28 = CLOSED_SHELL ( 'NONE', ( #15, #23, #5, #29 ) ) ;
#29 = ADVANCED_FACE ( 'NONE', ( #80 ), #76, .F. ) ;
#30 = EDGE_LOOP ( 'NONE', ( #32, #31 ) ) ;
#31 = ORIENTED_EDGE ( 'NONE', *, *, #27, .F. ) ;
#32 = ORIENTED_EDGE ( 'NONE', *, *, #20, .F. ) ;
#33 = AXIS2_PLACEMENT_3D ( 'NONE', #38, #37, #36 ) ;
#34 = FACE_OUTER_BOUND ( 'NONE', #16, .T. ) ;
#35 = CARTESIAN_POINT ( 'NONE',  ( -2.500000000000000000, 0.0000000000000000000, 165.0000000000000000 ) ) ;
#36 = DIRECTION ( 'NONE',  ( 1.000000000000000000, 0.0000000000000000000, -0.0000000000000000000 ) ) ;
#37 = DIRECTION ( 'NONE',  ( 0.0000000000000000000, 0.0000000000000000000, 1.000000000000000000 ) ) ;
#38 = CARTESIAN_POINT ( 'NONE',  ( 0.0000000000000000000, 0.0000000000000000000, 165.0000000000000000 ) ) ;
#39 = PLANE ( 'NONE',  #33 ) ;
#40 = PRODUCT ( 'PH150000-330', 'PH150000-330', '', ( #41 ) ) ;
#41 = MECHANICAL_CONTEXT ( 'NONE', #43, 'mechanical' ) ;
#42 = APPLICATION_PROTOCOL_DEFINITION ( 'international standard', 'config_control_design', 1994, #43 ) ;
#43 = APPLICATION_CONTEXT ( 'configuration controlled 3d designs of mechanical parts and assemblies' ) ;
#44 = DIRECTION ( 'NONE',  ( 0.0000000000000000000, 0.0000000000000000000, 1.000000000000000000 ) ) ;
#45 = CC_DESIGN_PERSON_AND_ORGANIZATION_ASSIGNMENT ( #47, #46, ( #59 ) ) ;
#46 = PERSON_AND_ORGANIZATION_ROLE ( 'creator' ) ;
#47 = PERSON_AND_ORGANIZATION ( #85, #68 ) ;
#48 = CC_DESIGN_APPROVAL ( #56, ( #59 ) ) ;
#49 = APPROVAL_DATE_TIME ( #50, #56 ) ;
#50 = DATE_AND_TIME ( #51, #52 ) ;
#51 = CALENDAR_DATE ( 2012, 5, 9 ) ;
#52 = LOCAL_TIME ( 17, 16, 51.00000000000000000, #53 ) ;
#53 = COORDINATED_UNIVERSAL_TIME_OFFSET ( 1, 0, .AHEAD. ) ;
#54 = APPROVAL_PERSON_ORGANIZATION ( #58, #56, #55 ) ;
#55 = APPROVAL_ROLE ( '' ) ;
#56 = APPROVAL ( #57, 'UNSPECIFIED' ) ;
#57 = APPROVAL_STATUS ( 'not_yet_approved' ) ;
#58 = PERSON_AND_ORGANIZATION ( #85, #68 ) ;
#59 = PRODUCT_DEFINITION ( 'UNKNOWN', '', #135, #60 ) ;
#60 = DESIGN_CONTEXT ( 'detailed design', #62, 'design' ) ;
#61 = APPLICATION_PROTOCOL_DEFINITION ( 'international standard', 'config_control_design', 1994, #62 ) ;
#62 = APPLICATION_CONTEXT ( 'configuration controlled 3d designs of mechanical parts and assemblies' ) ;
#63 =( NAMED_UNIT ( * ) SI_UNIT ( $, .STERADIAN. ) SOLID_ANGLE_UNIT ( ) );
#64 =( NAMED_UNIT ( * ) PLANE_ANGLE_UNIT ( ) SI_UNIT ( $, .RADIAN. ) );
#65 = CC_DESIGN_PERSON_AND_ORGANIZATION_ASSIGNMENT ( #67, #66, ( #40 ) ) ;
#66 = PERSON_AND_ORGANIZATION_ROLE ( 'design_owner' ) ;
#67 = PERSON_AND_ORGANIZATION ( #85, #68 ) ;
#68 = ORGANIZATION ( 'UNSPECIFIED', 'UNSPECIFIED', '' ) ;
#69 = DIRECTION ( 'NONE',  ( -1.000000000000000000, 0.0000000000000000000, 0.0000000000000000000 ) ) ;
#70 = CARTESIAN_POINT ( 'NONE',  ( 0.0000000000000000000, 0.0000000000000000000, -165.0000000000000000 ) ) ;
#71 = CARTESIAN_POINT ( 'NONE',  ( 0.0000000000000000000, 0.0000000000000000000, 165.0000000000000000 ) ) ;
#72 = DIRECTION ( 'NONE',  ( 0.0000000000000000000, 0.0000000000000000000, 1.000000000000000000 ) ) ;
#73 = DIRECTION ( 'NONE',  ( 1.000000000000000000, 0.0000000000000000000, 0.0000000000000000000 ) ) ;
#74 = CARTESIAN_POINT ( 'NONE',  ( 0.0000000000000000000, 0.0000000000000000000, -165.0000000000000000 ) ) ;
#75 = DIRECTION ( 'NONE',  ( 1.000000000000000000, 0.0000000000000000000, 0.0000000000000000000 ) ) ;
#76 = PLANE ( 'NONE',  #81 ) ;
#77 = DIRECTION ( 'NONE',  ( -0.0000000000000000000, -0.0000000000000000000, -1.000000000000000000 ) ) ;
#78 = VECTOR ( 'NONE', #77, 1000.000000000000000 ) ;
#79 = CARTESIAN_POINT ( 'NONE',  ( 0.0000000000000000000, 0.0000000000000000000, -165.0000000000000000 ) ) ;
#80 = FACE_OUTER_BOUND ( 'NONE', #30, .T. ) ;
#81 = AXIS2_PLACEMENT_3D ( 'NONE', #74, #72, #94 ) ;
#82 = DIRECTION ( 'NONE',  ( 1.000000000000000000, 0.0000000000000000000, 0.0000000000000000000 ) ) ;
#83 = DIRECTION ( 'NONE',  ( 0.0000000000000000000, 0.0000000000000000000, 1.000000000000000000 ) ) ;
#84 = AXIS2_PLACEMENT_3D ( 'NONE', #96, #83, #82 ) ;
#85 = PERSON ( 'UNSPECIFIED', 'UNSPECIFIED', 'UNSPECIFIED', ('UNSPECIFIED'), ('UNSPECIFIED'), ('UNSPECIFIED') ) ;
#86 = ADVANCED_BREP_SHAPE_REPRESENTATION ( 'PH150000-330', ( #6, #84 ), #87 ) ;
#87 =( GEOMETRIC_REPRESENTATION_CONTEXT ( 3 ) GLOBAL_UNCERTAINTY_ASSIGNED_CONTEXT ( ( #88 ) ) GLOBAL_UNIT_ASSIGNED_CONTEXT ( ( #95, #64, #63 ) ) REPRESENTATION_CONTEXT ( 'NONE', 'WORKASPACE' ) );
#88 = UNCERTAINTY_MEASURE_WITH_UNIT (LENGTH_MEASURE( 1.000000000000000100E-005 ), #95, 'distance_accuracy_value', 'NONE');
#89 = DIRECTION ( 'NONE',  ( -0.0000000000000000000, -0.0000000000000000000, -1.000000000000000000 ) ) ;
#90 = CIRCLE ( 'NONE', #91, 2.500000000000000000 ) ;
#91 = AXIS2_PLACEMENT_3D ( 'NONE', #120, #109, #75 ) ;
#92 = CARTESIAN_POINT ( 'NONE',  ( -2.500000000000000000, 0.0000000000000000000, -165.0000000000000000 ) ) ;
#93 = CARTESIAN_POINT ( 'NONE',  ( 2.500000000000000000, 3.061616997868383100E-016, 165.0000000000000000 ) ) ;
#94 = DIRECTION ( 'NONE',  ( 1.000000000000000000, 0.0000000000000000000, -0.0000000000000000000 ) ) ;
#95 =( LENGTH_UNIT ( ) NAMED_UNIT ( * ) SI_UNIT ( .MILLI., .METRE. ) );
#96 = CARTESIAN_POINT ( 'NONE',  ( 0.0000000000000000000, 0.0000000000000000000, 0.0000000000000000000 ) ) ;
#97 = FACE_OUTER_BOUND ( 'NONE', #24, .T. ) ;
#98 = DIRECTION ( 'NONE',  ( 1.000000000000000000, 0.0000000000000000000, 0.0000000000000000000 ) ) ;
#99 = DIRECTION ( 'NONE',  ( 0.0000000000000000000, 0.0000000000000000000, 1.000000000000000000 ) ) ;
#100 = CIRCLE ( 'NONE', #122, 2.500000000000000000 ) ;
#101 = CARTESIAN_POINT ( 'NONE',  ( 0.0000000000000000000, 0.0000000000000000000, 165.0000000000000000 ) ) ;
#102 = AXIS2_PLACEMENT_3D ( 'NONE', #101, #89, #69 ) ;
#103 = CYLINDRICAL_SURFACE ( 'NONE', #102, 2.500000000000000000 ) ;
#104 = CIRCLE ( 'NONE', #123, 2.500000000000000000 ) ;
#105 = AXIS2_PLACEMENT_3D ( 'NONE', #110, #124, #121 ) ;
#106 = CYLINDRICAL_SURFACE ( 'NONE', #105, 2.500000000000000000 ) ;
#107 = LINE ( 'NONE', #108, #78 ) ;
#108 = CARTESIAN_POINT ( 'NONE',  ( -2.500000000000000000, 0.0000000000000000000, 165.0000000000000000 ) ) ;
#109 = DIRECTION ( 'NONE',  ( 0.0000000000000000000, 0.0000000000000000000, 1.000000000000000000 ) ) ;
#110 = CARTESIAN_POINT ( 'NONE',  ( 0.0000000000000000000, 0.0000000000000000000, 165.0000000000000000 ) ) ;
#111 = DIRECTION ( 'NONE',  ( 1.000000000000000000, 0.0000000000000000000, 0.0000000000000000000 ) ) ;
#112 = DIRECTION ( 'NONE',  ( 0.0000000000000000000, 0.0000000000000000000, 1.000000000000000000 ) ) ;
#113 = AXIS2_PLACEMENT_3D ( 'NONE', #70, #112, #111 ) ;
#114 = CIRCLE ( 'NONE', #113, 2.500000000000000000 ) ;
#115 = LINE ( 'NONE', #119, #118 ) ;
#116 = FACE_OUTER_BOUND ( 'NONE', #4, .T. ) ;
#117 = DIRECTION ( 'NONE',  ( -0.0000000000000000000, -0.0000000000000000000, -1.000000000000000000 ) ) ;
#118 = VECTOR ( 'NONE', #117, 1000.000000000000000 ) ;
#119 = CARTESIAN_POINT ( 'NONE',  ( 2.500000000000000000, 3.061616997868383100E-016, 165.0000000000000000 ) ) ;
#120 = CARTESIAN_POINT ( 'NONE',  ( 0.0000000000000000000, 0.0000000000000000000, 165.0000000000000000 ) ) ;
#121 = DIRECTION ( 'NONE',  ( -1.000000000000000000, 0.0000000000000000000, 0.0000000000000000000 ) ) ;
#122 = AXIS2_PLACEMENT_3D ( 'NONE', #79, #44, #73 ) ;
#123 = AXIS2_PLACEMENT_3D ( 'NONE', #71, #99, #98 ) ;
#124 = DIRECTION ( 'NONE',  ( -0.0000000000000000000, -0.0000000000000000000, -1.000000000000000000 ) ) ;
#125 = CARTESIAN_POINT ( 'NONE',  ( 2.500000000000000000, 3.061616997868383100E-016, -165.0000000000000000 ) ) ;
#126 = COORDINATED_UNIVERSAL_TIME_OFFSET ( 1, 0, .AHEAD. ) ;
#127 = APPROVAL_PERSON_ORGANIZATION ( #134, #129, #128 ) ;
#128 = APPROVAL_ROLE ( '' ) ;
#129 = APPROVAL ( #130, 'UNSPECIFIED' ) ;
#130 = APPROVAL_STATUS ( 'not_yet_approved' ) ;
#131 = SHAPE_DEFINITION_REPRESENTATION ( #132, #86 ) ;
#132 = PRODUCT_DEFINITION_SHAPE ( 'NONE', 'NONE',  #59 ) ;
#133 = PRODUCT_RELATED_PRODUCT_CATEGORY ( 'detail', '', ( #40 ) ) ;
#134 = PERSON_AND_ORGANIZATION ( #85, #68 ) ;
#135 = PRODUCT_DEFINITION_FORMATION_WITH_SPECIFIED_SOURCE ( 'ANY', '', #40, .NOT_KNOWN. ) ;
#136 = CC_DESIGN_DATE_AND_TIME_ASSIGNMENT ( #147, #137, ( #59 ) ) ;
#137 = DATE_TIME_ROLE ( 'creation_date' ) ;
#138 = PERSON_AND_ORGANIZATION ( #85, #68 ) ;
#139 = CC_DESIGN_PERSON_AND_ORGANIZATION_ASSIGNMENT ( #141, #140, ( #135 ) ) ;
#140 = PERSON_AND_ORGANIZATION_ROLE ( 'creator' ) ;
#141 = PERSON_AND_ORGANIZATION ( #85, #68 ) ;
#142 = CC_DESIGN_APPROVAL ( #129, ( #135 ) ) ;
#143 = APPROVAL_DATE_TIME ( #144, #129 ) ;
#144 = DATE_AND_TIME ( #145, #146 ) ;
#145 = CALENDAR_DATE ( 2012, 5, 9 ) ;
#146 = LOCAL_TIME ( 17, 16, 51.00000000000000000, #126 ) ;
#147 = DATE_AND_TIME ( #148, #149 ) ;
#148 = CALENDAR_DATE ( 2012, 5, 9 ) ;
#149 = LOCAL_TIME ( 17, 16, 51.00000000000000000, #150 ) ;
#150 = COORDINATED_UNIVERSAL_TIME_OFFSET ( 1, 0, .AHEAD. ) ;
#151 = CC_DESIGN_SECURITY_CLASSIFICATION ( #172, ( #135 ) ) ;
#152 = CC_DESIGN_APPROVAL ( #160, ( #172 ) ) ;
#153 = APPROVAL_DATE_TIME ( #154, #160 ) ;
#154 = DATE_AND_TIME ( #155, #156 ) ;
#155 = CALENDAR_DATE ( 2012, 5, 9 ) ;
#156 = LOCAL_TIME ( 17, 16, 51.00000000000000000, #157 ) ;
#157 = COORDINATED_UNIVERSAL_TIME_OFFSET ( 1, 0, .AHEAD. ) ;
#158 = APPROVAL_PERSON_ORGANIZATION ( #162, #160, #159 ) ;
#159 = APPROVAL_ROLE ( '' ) ;
#160 = APPROVAL ( #161, 'UNSPECIFIED' ) ;
#161 = APPROVAL_STATUS ( 'not_yet_approved' ) ;
#162 = PERSON_AND_ORGANIZATION ( #85, #68 ) ;
#163 = CC_DESIGN_DATE_AND_TIME_ASSIGNMENT ( #165, #164, ( #172 ) ) ;
#164 = DATE_TIME_ROLE ( 'classification_date' ) ;
#165 = DATE_AND_TIME ( #166, #167 ) ;
#166 = CALENDAR_DATE ( 2012, 5, 9 ) ;
#167 = LOCAL_TIME ( 17, 16, 51.00000000000000000, #168 ) ;
#168 = COORDINATED_UNIVERSAL_TIME_OFFSET ( 1, 0, .AHEAD. ) ;
#169 = CC_DESIGN_PERSON_AND_ORGANIZATION_ASSIGNMENT ( #171, #170, ( #172 ) ) ;
#170 = PERSON_AND_ORGANIZATION_ROLE ( 'classification_officer' ) ;
#171 = PERSON_AND_ORGANIZATION ( #85, #68 ) ;
#172 = SECURITY_CLASSIFICATION ( '', '', #173 ) ;
#173 = SECURITY_CLASSIFICATION_LEVEL ( 'unclassified' ) ;
#174 = CC_DESIGN_PERSON_AND_ORGANIZATION_ASSIGNMENT ( #138, #175, ( #135 ) ) ;
#175 = PERSON_AND_ORGANIZATION_ROLE ( 'design_supplier' ) ;
ENDSEC;
END-ISO-10303-21;
