ISO-10303-21;
HEADER;
FILE_DESCRIPTION (( 'STEP AP203' ),
    '1' );
FILE_NAME ('PH160000-250.STP',
    '2012-09-05T15:18:35',
    ( 'dis05' ),
    ( '' ),
    'SwSTEP 2.0',
    'SolidWorks 2010',
    '' );
FILE_SCHEMA (( 'CONFIG_CONTROL_DESIGN' ));
ENDSEC;

DATA;
#1 = VECTOR ( 'NONE', #2, 1000.000000000000000 ) ;
#2 = DIRECTION ( 'NONE',  ( -0.0000000000000000000, -0.0000000000000000000, -1.000000000000000000 ) ) ;
#3 = DIRECTION ( 'NONE',  ( 1.000000000000000000, 0.0000000000000000000, 0.0000000000000000000 ) ) ;
#4 = DIRECTION ( 'NONE',  ( -0.0000000000000000000, -0.0000000000000000000, -1.000000000000000000 ) ) ;
#5 = ORIENTED_EDGE ( 'NONE', *, *, #23, .T. ) ;
#6 = ORIENTED_EDGE ( 'NONE', *, *, #26, .T. ) ;
#7 = ADVANCED_FACE ( 'NONE', ( #48 ), #41, .T. ) ;
#8 = ORIENTED_EDGE ( 'NONE', *, *, #17, .T. ) ;
#9 = EDGE_LOOP ( 'NONE', ( #11, #34 ) ) ;
#10 = CLOSED_SHELL ( 'NONE', ( #16, #19, #7, #35 ) ) ;
#11 = ORIENTED_EDGE ( 'NONE', *, *, #23, .F. ) ;
#12 = ORIENTED_EDGE ( 'NONE', *, *, #17, .F. ) ;
#13 = EDGE_LOOP ( 'NONE', ( #8, #15 ) ) ;
#14 = ORIENTED_EDGE ( 'NONE', *, *, #32, .F. ) ;
#15 = ORIENTED_EDGE ( 'NONE', *, *, #32, .T. ) ;
#16 = ADVANCED_FACE ( 'NONE', ( #28 ), #44, .T. ) ;
#17 = EDGE_CURVE ( 'NONE', #20, #37, #51, .T. ) ;
#18 = EDGE_LOOP ( 'NONE', ( #14, #30, #25, #27 ) ) ;
#19 = ADVANCED_FACE ( 'NONE', ( #70 ), #58, .T. ) ;
#20 = VERTEX_POINT ( 'NONE', #69 ) ;
#21 = VERTEX_POINT ( 'NONE', #71 ) ;
#22 = EDGE_LOOP ( 'NONE', ( #36, #12, #6, #5 ) ) ;
#23 = EDGE_CURVE ( 'NONE', #29, #21, #56, .T. ) ;
#24 = EDGE_CURVE ( 'NONE', #21, #29, #57, .T. ) ;
#25 = ORIENTED_EDGE ( 'NONE', *, *, #24, .T. ) ;
#26 = EDGE_CURVE ( 'NONE', #20, #29, #65, .T. ) ;
#27 = ORIENTED_EDGE ( 'NONE', *, *, #26, .F. ) ;
#28 = FACE_OUTER_BOUND ( 'NONE', #18, .T. ) ;
#29 = VERTEX_POINT ( 'NONE', #104 ) ;
#30 = ORIENTED_EDGE ( 'NONE', *, *, #33, .T. ) ;
#31 = DIRECTION ( 'NONE',  ( -1.000000000000000000, 0.0000000000000000000, 0.0000000000000000000 ) ) ;
#32 = EDGE_CURVE ( 'NONE', #37, #20, #89, .T. ) ;
#33 = EDGE_CURVE ( 'NONE', #37, #21, #90, .T. ) ;
#34 = ORIENTED_EDGE ( 'NONE', *, *, #24, .F. ) ;
#35 = ADVANCED_FACE ( 'NONE', ( #73 ), #91, .F. ) ;
#36 = ORIENTED_EDGE ( 'NONE', *, *, #33, .F. ) ;
#37 = VERTEX_POINT ( 'NONE', #97 ) ;
#38 = MANIFOLD_SOLID_BREP ( 'Saliente-Extruir1', #10 ) ;
#39 = DIRECTION ( 'NONE',  ( 1.000000000000000000, 0.0000000000000000000, -0.0000000000000000000 ) ) ;
#40 = CARTESIAN_POINT ( 'NONE',  ( 0.0000000000000000000, 0.0000000000000000000, 125.0000000000000000 ) ) ;
#41 = PLANE ( 'NONE',  #42 ) ;
#42 = AXIS2_PLACEMENT_3D ( 'NONE', #40, #49, #39 ) ;
#43 = AXIS2_PLACEMENT_3D ( 'NONE', #46, #4, #31 ) ;
#44 = CYLINDRICAL_SURFACE ( 'NONE', #43, 3.000000000000000400 ) ;
#45 = DIRECTION ( 'NONE',  ( 1.000000000000000000, 0.0000000000000000000, 0.0000000000000000000 ) ) ;
#46 = CARTESIAN_POINT ( 'NONE',  ( 0.0000000000000000000, 0.0000000000000000000, 125.0000000000000000 ) ) ;
#47 = DIRECTION ( 'NONE',  ( 0.0000000000000000000, 0.0000000000000000000, 1.000000000000000000 ) ) ;
#48 = FACE_OUTER_BOUND ( 'NONE', #13, .T. ) ;
#49 = DIRECTION ( 'NONE',  ( 0.0000000000000000000, 0.0000000000000000000, 1.000000000000000000 ) ) ;
#50 = AXIS2_PLACEMENT_3D ( 'NONE', #53, #52, #3 ) ;
#51 = CIRCLE ( 'NONE', #50, 3.000000000000000400 ) ;
#52 = DIRECTION ( 'NONE',  ( 0.0000000000000000000, 0.0000000000000000000, 1.000000000000000000 ) ) ;
#53 = CARTESIAN_POINT ( 'NONE',  ( 0.0000000000000000000, 0.0000000000000000000, 125.0000000000000000 ) ) ;
#54 = CARTESIAN_POINT ( 'NONE',  ( 0.0000000000000000000, 0.0000000000000000000, -125.0000000000000000 ) ) ;
#55 = AXIS2_PLACEMENT_3D ( 'NONE', #54, #47, #45 ) ;
#56 = CIRCLE ( 'NONE', #55, 3.000000000000000400 ) ;
#57 = CIRCLE ( 'NONE', #64, 3.000000000000000400 ) ;
#58 = CYLINDRICAL_SURFACE ( 'NONE', #67, 3.000000000000000400 ) ;
#59 = DIRECTION ( 'NONE',  ( 1.000000000000000000, 0.0000000000000000000, 0.0000000000000000000 ) ) ;
#60 = DIRECTION ( 'NONE',  ( 0.0000000000000000000, 0.0000000000000000000, 1.000000000000000000 ) ) ;
#61 = CARTESIAN_POINT ( 'NONE',  ( 0.0000000000000000000, 0.0000000000000000000, 125.0000000000000000 ) ) ;
#62 = CARTESIAN_POINT ( 'NONE',  ( -3.000000000000000400, 0.0000000000000000000, 125.0000000000000000 ) ) ;
#63 = DIRECTION ( 'NONE',  ( -0.0000000000000000000, -0.0000000000000000000, -1.000000000000000000 ) ) ;
#64 = AXIS2_PLACEMENT_3D ( 'NONE', #66, #60, #59 ) ;
#65 = LINE ( 'NONE', #62, #1 ) ;
#66 = CARTESIAN_POINT ( 'NONE',  ( 0.0000000000000000000, 0.0000000000000000000, -125.0000000000000000 ) ) ;
#67 = AXIS2_PLACEMENT_3D ( 'NONE', #61, #63, #68 ) ;
#68 = DIRECTION ( 'NONE',  ( -1.000000000000000000, 0.0000000000000000000, 0.0000000000000000000 ) ) ;
#69 = CARTESIAN_POINT ( 'NONE',  ( -3.000000000000000400, 0.0000000000000000000, 125.0000000000000000 ) ) ;
#70 = FACE_OUTER_BOUND ( 'NONE', #22, .T. ) ;
#71 = CARTESIAN_POINT ( 'NONE',  ( 3.000000000000000400, 3.673940397442060400E-016, -125.0000000000000000 ) ) ;
#72 = VECTOR ( 'NONE', #98, 1000.000000000000000 ) ;
#73 = FACE_OUTER_BOUND ( 'NONE', #9, .T. ) ;
#74 = DESIGN_CONTEXT ( 'detailed design', #76, 'design' ) ;
#75 = APPLICATION_PROTOCOL_DEFINITION ( 'international standard', 'config_control_design', 1994, #76 ) ;
#76 = APPLICATION_CONTEXT ( 'configuration controlled 3d designs of mechanical parts and assemblies' ) ;
#77 = CC_DESIGN_PERSON_AND_ORGANIZATION_ASSIGNMENT ( #79, #78, ( #93 ) ) ;
#78 = PERSON_AND_ORGANIZATION_ROLE ( 'design_owner' ) ;
#79 = PERSON_AND_ORGANIZATION ( #92, #80 ) ;
#80 = ORGANIZATION ( 'UNSPECIFIED', 'UNSPECIFIED', '' ) ;
#81 = UNCERTAINTY_MEASURE_WITH_UNIT (LENGTH_MEASURE( 1.000000000000000100E-005 ), #84, 'distance_accuracy_value', 'NONE');
#82 =( NAMED_UNIT ( * ) SI_UNIT ( $, .STERADIAN. ) SOLID_ANGLE_UNIT ( ) );
#83 =( NAMED_UNIT ( * ) PLANE_ANGLE_UNIT ( ) SI_UNIT ( $, .RADIAN. ) );
#84 =( LENGTH_UNIT ( ) NAMED_UNIT ( * ) SI_UNIT ( .MILLI., .METRE. ) );
#85 = DIRECTION ( 'NONE',  ( 1.000000000000000000, 0.0000000000000000000, -0.0000000000000000000 ) ) ;
#86 = DIRECTION ( 'NONE',  ( 0.0000000000000000000, 0.0000000000000000000, 1.000000000000000000 ) ) ;
#87 = CARTESIAN_POINT ( 'NONE',  ( 0.0000000000000000000, 0.0000000000000000000, -125.0000000000000000 ) ) ;
#88 = AXIS2_PLACEMENT_3D ( 'NONE', #87, #86, #85 ) ;
#89 = CIRCLE ( 'NONE', #107, 3.000000000000000400 ) ;
#90 = LINE ( 'NONE', #110, #72 ) ;
#91 = PLANE ( 'NONE',  #88 ) ;
#92 = PERSON ( 'UNSPECIFIED', 'UNSPECIFIED', 'UNSPECIFIED', ('UNSPECIFIED'), ('UNSPECIFIED'), ('UNSPECIFIED') ) ;
#93 = PRODUCT ( 'PH160000-250', 'PH160000-250', '', ( #94 ) ) ;
#94 = MECHANICAL_CONTEXT ( 'NONE', #96, 'mechanical' ) ;
#95 = APPLICATION_PROTOCOL_DEFINITION ( 'international standard', 'config_control_design', 1994, #96 ) ;
#96 = APPLICATION_CONTEXT ( 'configuration controlled 3d designs of mechanical parts and assemblies' ) ;
#97 = CARTESIAN_POINT ( 'NONE',  ( 3.000000000000000400, 3.673940397442060400E-016, 125.0000000000000000 ) ) ;
#98 = DIRECTION ( 'NONE',  ( -0.0000000000000000000, -0.0000000000000000000, -1.000000000000000000 ) ) ;
#99 = CARTESIAN_POINT ( 'NONE',  ( 0.0000000000000000000, 0.0000000000000000000, 0.0000000000000000000 ) ) ;
#100 = DIRECTION ( 'NONE',  ( 1.000000000000000000, 0.0000000000000000000, 0.0000000000000000000 ) ) ;
#101 = AXIS2_PLACEMENT_3D ( 'NONE', #99, #109, #108 ) ;
#102 = ADVANCED_BREP_SHAPE_REPRESENTATION ( 'PH160000-250', ( #38, #101 ), #103 ) ;
#103 =( GEOMETRIC_REPRESENTATION_CONTEXT ( 3 ) GLOBAL_UNCERTAINTY_ASSIGNED_CONTEXT ( ( #81 ) ) GLOBAL_UNIT_ASSIGNED_CONTEXT ( ( #84, #83, #82 ) ) REPRESENTATION_CONTEXT ( 'NONE', 'WORKASPACE' ) );
#104 = CARTESIAN_POINT ( 'NONE',  ( -3.000000000000000400, 0.0000000000000000000, -125.0000000000000000 ) ) ;
#105 = CARTESIAN_POINT ( 'NONE',  ( 0.0000000000000000000, 0.0000000000000000000, 125.0000000000000000 ) ) ;
#106 = DIRECTION ( 'NONE',  ( 0.0000000000000000000, 0.0000000000000000000, 1.000000000000000000 ) ) ;
#107 = AXIS2_PLACEMENT_3D ( 'NONE', #105, #106, #100 ) ;
#108 = DIRECTION ( 'NONE',  ( 1.000000000000000000, 0.0000000000000000000, 0.0000000000000000000 ) ) ;
#109 = DIRECTION ( 'NONE',  ( 0.0000000000000000000, 0.0000000000000000000, 1.000000000000000000 ) ) ;
#110 = CARTESIAN_POINT ( 'NONE',  ( 3.000000000000000400, 3.673940397442060400E-016, 125.0000000000000000 ) ) ;
#111 = CC_DESIGN_APPROVAL ( #117, ( #119 ) ) ;
#112 = CALENDAR_DATE ( 2012, 5, 9 ) ;
#113 = APPROVAL_DATE_TIME ( #120, #117 ) ;
#114 = COORDINATED_UNIVERSAL_TIME_OFFSET ( 1, 0, .AHEAD. ) ;
#115 = APPROVAL_ROLE ( '' ) ;
#116 = APPROVAL_STATUS ( 'not_yet_approved' ) ;
#117 = APPROVAL ( #116, 'UNSPECIFIED' ) ;
#118 = PERSON_AND_ORGANIZATION ( #92, #80 ) ;
#119 = PRODUCT_DEFINITION ( 'UNKNOWN', '', #163, #74 ) ;
#120 = DATE_AND_TIME ( #112, #121 ) ;
#121 = LOCAL_TIME ( 17, 18, 35.00000000000000000, #114 ) ;
#122 = APPROVAL_PERSON_ORGANIZATION ( #118, #117, #115 ) ;
#123 = CC_DESIGN_PERSON_AND_ORGANIZATION_ASSIGNMENT ( #125, #124, ( #119 ) ) ;
#124 = PERSON_AND_ORGANIZATION_ROLE ( 'creator' ) ;
#125 = PERSON_AND_ORGANIZATION ( #92, #80 ) ;
#126 = CC_DESIGN_PERSON_AND_ORGANIZATION_ASSIGNMENT ( #131, #130, ( #163 ) ) ;
#127 = DATE_AND_TIME ( #133, #128 ) ;
#128 = LOCAL_TIME ( 17, 18, 35.00000000000000000, #129 ) ;
#129 = COORDINATED_UNIVERSAL_TIME_OFFSET ( 1, 0, .AHEAD. ) ;
#130 = PERSON_AND_ORGANIZATION_ROLE ( 'creator' ) ;
#131 = PERSON_AND_ORGANIZATION ( #92, #80 ) ;
#132 = CC_DESIGN_APPROVAL ( #174, ( #163 ) ) ;
#133 = CALENDAR_DATE ( 2012, 5, 9 ) ;
#134 = COORDINATED_UNIVERSAL_TIME_OFFSET ( 1, 0, .AHEAD. ) ;
#135 = PERSON_AND_ORGANIZATION_ROLE ( 'design_supplier' ) ;
#136 = PERSON_AND_ORGANIZATION ( #92, #80 ) ;
#137 = CC_DESIGN_SECURITY_CLASSIFICATION ( #161, ( #163 ) ) ;
#138 = CC_DESIGN_APPROVAL ( #150, ( #161 ) ) ;
#139 = APPROVAL_DATE_TIME ( #145, #150 ) ;
#140 = CALENDAR_DATE ( 2012, 5, 9 ) ;
#141 = CC_DESIGN_DATE_AND_TIME_ASSIGNMENT ( #142, #144, ( #119 ) ) ;
#142 = DATE_AND_TIME ( #143, #155 ) ;
#143 = CALENDAR_DATE ( 2012, 5, 9 ) ;
#144 = DATE_TIME_ROLE ( 'creation_date' ) ;
#145 = DATE_AND_TIME ( #140, #146 ) ;
#146 = LOCAL_TIME ( 17, 18, 35.00000000000000000, #147 ) ;
#147 = COORDINATED_UNIVERSAL_TIME_OFFSET ( 1, 0, .AHEAD. ) ;
#148 = APPROVAL_PERSON_ORGANIZATION ( #152, #150, #149 ) ;
#149 = APPROVAL_ROLE ( '' ) ;
#150 = APPROVAL ( #151, 'UNSPECIFIED' ) ;
#151 = APPROVAL_STATUS ( 'not_yet_approved' ) ;
#152 = PERSON_AND_ORGANIZATION ( #92, #80 ) ;
#153 = SECURITY_CLASSIFICATION_LEVEL ( 'unclassified' ) ;
#154 = CC_DESIGN_PERSON_AND_ORGANIZATION_ASSIGNMENT ( #136, #135, ( #163 ) ) ;
#155 = LOCAL_TIME ( 17, 18, 35.00000000000000000, #134 ) ;
#156 = DATE_AND_TIME ( #169, #170 ) ;
#157 = COORDINATED_UNIVERSAL_TIME_OFFSET ( 1, 0, .AHEAD. ) ;
#158 = CC_DESIGN_PERSON_AND_ORGANIZATION_ASSIGNMENT ( #160, #159, ( #161 ) ) ;
#159 = PERSON_AND_ORGANIZATION_ROLE ( 'classification_officer' ) ;
#160 = PERSON_AND_ORGANIZATION ( #92, #80 ) ;
#161 = SECURITY_CLASSIFICATION ( '', '', #153 ) ;
#162 = PERSON_AND_ORGANIZATION ( #92, #80 ) ;
#163 = PRODUCT_DEFINITION_FORMATION_WITH_SPECIFIED_SOURCE ( 'ANY', '', #93, .NOT_KNOWN. ) ;
#164 = APPROVAL_DATE_TIME ( #127, #174 ) ;
#165 = APPROVAL_PERSON_ORGANIZATION ( #162, #174, #166 ) ;
#166 = APPROVAL_ROLE ( '' ) ;
#167 = CC_DESIGN_DATE_AND_TIME_ASSIGNMENT ( #156, #168, ( #161 ) ) ;
#168 = DATE_TIME_ROLE ( 'classification_date' ) ;
#169 = CALENDAR_DATE ( 2012, 5, 9 ) ;
#170 = LOCAL_TIME ( 17, 18, 35.00000000000000000, #157 ) ;
#171 = SHAPE_DEFINITION_REPRESENTATION ( #172, #102 ) ;
#172 = PRODUCT_DEFINITION_SHAPE ( 'NONE', 'NONE',  #119 ) ;
#173 = PRODUCT_RELATED_PRODUCT_CATEGORY ( 'detail', '', ( #93 ) ) ;
#174 = APPROVAL ( #175, 'UNSPECIFIED' ) ;
#175 = APPROVAL_STATUS ( 'not_yet_approved' ) ;
ENDSEC;
END-ISO-10303-21;
