ISO-10303-21;
HEADER;
FILE_DESCRIPTION (( 'STEP AP203' ),
    '1' );
FILE_NAME ('PH160000-330.STP',
    '2012-09-05T15:18:48',
    ( 'dis05' ),
    ( '' ),
    'SwSTEP 2.0',
    'SolidWorks 2010',
    '' );
FILE_SCHEMA (( 'CONFIG_CONTROL_DESIGN' ));
ENDSEC;

DATA;
#1 = ORIENTED_EDGE ( 'NONE', *, *, #8, .F. ) ;
#2 = ORIENTED_EDGE ( 'NONE', *, *, #7, .F. ) ;
#3 = EDGE_LOOP ( 'NONE', ( #34, #23, #10, #24 ) ) ;
#4 = CLOSED_SHELL ( 'NONE', ( #19, #26, #16, #18 ) ) ;
#5 = ORIENTED_EDGE ( 'NONE', *, *, #31, .F. ) ;
#6 = EDGE_CURVE ( 'NONE', #22, #28, #45, .T. ) ;
#7 = EDGE_CURVE ( 'NONE', #22, #30, #39, .T. ) ;
#8 = EDGE_CURVE ( 'NONE', #35, #30, #61, .T. ) ;
#9 = CARTESIAN_POINT ( 'NONE',  ( 0.0000000000000000000, 0.0000000000000000000, -165.0000000000000000 ) ) ;
#10 = ORIENTED_EDGE ( 'NONE', *, *, #7, .T. ) ;
#11 = ORIENTED_EDGE ( 'NONE', *, *, #8, .T. ) ;
#12 = ORIENTED_EDGE ( 'NONE', *, *, #13, .T. ) ;
#13 = EDGE_CURVE ( 'NONE', #28, #35, #48, .T. ) ;
#14 = ORIENTED_EDGE ( 'NONE', *, *, #33, .T. ) ;
#15 = ORIENTED_EDGE ( 'NONE', *, *, #33, .F. ) ;
#16 = ADVANCED_FACE ( 'NONE', ( #60 ), #56, .T. ) ;
#17 = ORIENTED_EDGE ( 'NONE', *, *, #6, .T. ) ;
#18 = ADVANCED_FACE ( 'NONE', ( #47 ), #42, .F. ) ;
#19 = ADVANCED_FACE ( 'NONE', ( #78 ), #65, .T. ) ;
#20 = MANIFOLD_SOLID_BREP ( 'Saliente-Extruir1', #4 ) ;
#21 = DIRECTION ( 'NONE',  ( 1.000000000000000000, 0.0000000000000000000, -0.0000000000000000000 ) ) ;
#22 = VERTEX_POINT ( 'NONE', #93 ) ;
#23 = ORIENTED_EDGE ( 'NONE', *, *, #6, .F. ) ;
#24 = ORIENTED_EDGE ( 'NONE', *, *, #31, .T. ) ;
#25 = DIRECTION ( 'NONE',  ( 0.0000000000000000000, 0.0000000000000000000, 1.000000000000000000 ) ) ;
#26 = ADVANCED_FACE ( 'NONE', ( #63 ), #79, .T. ) ;
#27 = EDGE_LOOP ( 'NONE', ( #15, #12, #11, #2 ) ) ;
#28 = VERTEX_POINT ( 'NONE', #74 ) ;
#29 = EDGE_LOOP ( 'NONE', ( #5, #1 ) ) ;
#30 = VERTEX_POINT ( 'NONE', #70 ) ;
#31 = EDGE_CURVE ( 'NONE', #30, #35, #91, .T. ) ;
#32 = EDGE_LOOP ( 'NONE', ( #17, #14 ) ) ;
#33 = EDGE_CURVE ( 'NONE', #28, #22, #77, .T. ) ;
#34 = ORIENTED_EDGE ( 'NONE', *, *, #13, .F. ) ;
#35 = VERTEX_POINT ( 'NONE', #76 ) ;
#36 = DIRECTION ( 'NONE',  ( -0.0000000000000000000, -0.0000000000000000000, -1.000000000000000000 ) ) ;
#37 = VECTOR ( 'NONE', #36, 1000.000000000000000 ) ;
#38 = CARTESIAN_POINT ( 'NONE',  ( -3.000000000000000400, 0.0000000000000000000, 165.0000000000000000 ) ) ;
#39 = LINE ( 'NONE', #38, #37 ) ;
#40 = AXIS2_PLACEMENT_3D ( 'NONE', #9, #25, #21 ) ;
#41 = CARTESIAN_POINT ( 'NONE',  ( 0.0000000000000000000, 0.0000000000000000000, 165.0000000000000000 ) ) ;
#42 = PLANE ( 'NONE',  #40 ) ;
#43 = DIRECTION ( 'NONE',  ( 1.000000000000000000, 0.0000000000000000000, 0.0000000000000000000 ) ) ;
#44 = DIRECTION ( 'NONE',  ( 0.0000000000000000000, 0.0000000000000000000, 1.000000000000000000 ) ) ;
#45 = CIRCLE ( 'NONE', #46, 3.000000000000000400 ) ;
#46 = AXIS2_PLACEMENT_3D ( 'NONE', #41, #44, #43 ) ;
#47 = FACE_OUTER_BOUND ( 'NONE', #29, .T. ) ;
#48 = LINE ( 'NONE', #59, #55 ) ;
#49 = AXIS2_PLACEMENT_3D ( 'NONE', #52, #57, #50 ) ;
#50 = DIRECTION ( 'NONE',  ( 1.000000000000000000, 0.0000000000000000000, 0.0000000000000000000 ) ) ;
#51 = CARTESIAN_POINT ( 'NONE',  ( 0.0000000000000000000, 0.0000000000000000000, 165.0000000000000000 ) ) ;
#52 = CARTESIAN_POINT ( 'NONE',  ( 0.0000000000000000000, 0.0000000000000000000, -165.0000000000000000 ) ) ;
#53 = DIRECTION ( 'NONE',  ( 1.000000000000000000, 0.0000000000000000000, -0.0000000000000000000 ) ) ;
#54 = DIRECTION ( 'NONE',  ( 0.0000000000000000000, 0.0000000000000000000, 1.000000000000000000 ) ) ;
#55 = VECTOR ( 'NONE', #58, 1000.000000000000000 ) ;
#56 = PLANE ( 'NONE',  #62 ) ;
#57 = DIRECTION ( 'NONE',  ( 0.0000000000000000000, 0.0000000000000000000, 1.000000000000000000 ) ) ;
#58 = DIRECTION ( 'NONE',  ( -0.0000000000000000000, -0.0000000000000000000, -1.000000000000000000 ) ) ;
#59 = CARTESIAN_POINT ( 'NONE',  ( 3.000000000000000400, 3.673940397442060400E-016, 165.0000000000000000 ) ) ;
#60 = FACE_OUTER_BOUND ( 'NONE', #32, .T. ) ;
#61 = CIRCLE ( 'NONE', #49, 3.000000000000000400 ) ;
#62 = AXIS2_PLACEMENT_3D ( 'NONE', #51, #54, #53 ) ;
#63 = FACE_OUTER_BOUND ( 'NONE', #3, .T. ) ;
#64 = DIRECTION ( 'NONE',  ( -1.000000000000000000, 0.0000000000000000000, 0.0000000000000000000 ) ) ;
#65 = CYLINDRICAL_SURFACE ( 'NONE', #75, 3.000000000000000400 ) ;
#66 = AXIS2_PLACEMENT_3D ( 'NONE', #67, #90, #89 ) ;
#67 = CARTESIAN_POINT ( 'NONE',  ( 0.0000000000000000000, 0.0000000000000000000, 165.0000000000000000 ) ) ;
#68 = CARTESIAN_POINT ( 'NONE',  ( 0.0000000000000000000, 0.0000000000000000000, -165.0000000000000000 ) ) ;
#69 = CARTESIAN_POINT ( 'NONE',  ( 0.0000000000000000000, 0.0000000000000000000, 165.0000000000000000 ) ) ;
#70 = CARTESIAN_POINT ( 'NONE',  ( -3.000000000000000400, 0.0000000000000000000, -165.0000000000000000 ) ) ;
#71 = ADVANCED_BREP_SHAPE_REPRESENTATION ( 'PH160000-330', ( #20, #98 ), #72 ) ;
#72 =( GEOMETRIC_REPRESENTATION_CONTEXT ( 3 ) GLOBAL_UNCERTAINTY_ASSIGNED_CONTEXT ( ( #73 ) ) GLOBAL_UNIT_ASSIGNED_CONTEXT ( ( #85, #81, #80 ) ) REPRESENTATION_CONTEXT ( 'NONE', 'WORKASPACE' ) );
#73 = UNCERTAINTY_MEASURE_WITH_UNIT (LENGTH_MEASURE( 1.000000000000000100E-005 ), #85, 'distance_accuracy_value', 'NONE');
#74 = CARTESIAN_POINT ( 'NONE',  ( 3.000000000000000400, 3.673940397442060400E-016, 165.0000000000000000 ) ) ;
#75 = AXIS2_PLACEMENT_3D ( 'NONE', #92, #94, #64 ) ;
#76 = CARTESIAN_POINT ( 'NONE',  ( 3.000000000000000400, 3.673940397442060400E-016, -165.0000000000000000 ) ) ;
#77 = CIRCLE ( 'NONE', #84, 3.000000000000000400 ) ;
#78 = FACE_OUTER_BOUND ( 'NONE', #27, .T. ) ;
#79 = CYLINDRICAL_SURFACE ( 'NONE', #66, 3.000000000000000400 ) ;
#80 =( NAMED_UNIT ( * ) SI_UNIT ( $, .STERADIAN. ) SOLID_ANGLE_UNIT ( ) );
#81 =( NAMED_UNIT ( * ) PLANE_ANGLE_UNIT ( ) SI_UNIT ( $, .RADIAN. ) );
#82 = DIRECTION ( 'NONE',  ( 1.000000000000000000, 0.0000000000000000000, 0.0000000000000000000 ) ) ;
#83 = DIRECTION ( 'NONE',  ( 0.0000000000000000000, 0.0000000000000000000, 1.000000000000000000 ) ) ;
#84 = AXIS2_PLACEMENT_3D ( 'NONE', #69, #83, #82 ) ;
#85 =( LENGTH_UNIT ( ) NAMED_UNIT ( * ) SI_UNIT ( .MILLI., .METRE. ) );
#86 = DIRECTION ( 'NONE',  ( 1.000000000000000000, 0.0000000000000000000, 0.0000000000000000000 ) ) ;
#87 = DIRECTION ( 'NONE',  ( 0.0000000000000000000, 0.0000000000000000000, 1.000000000000000000 ) ) ;
#88 = AXIS2_PLACEMENT_3D ( 'NONE', #68, #87, #86 ) ;
#89 = DIRECTION ( 'NONE',  ( -1.000000000000000000, 0.0000000000000000000, 0.0000000000000000000 ) ) ;
#90 = DIRECTION ( 'NONE',  ( -0.0000000000000000000, -0.0000000000000000000, -1.000000000000000000 ) ) ;
#91 = CIRCLE ( 'NONE', #88, 3.000000000000000400 ) ;
#92 = CARTESIAN_POINT ( 'NONE',  ( 0.0000000000000000000, 0.0000000000000000000, 165.0000000000000000 ) ) ;
#93 = CARTESIAN_POINT ( 'NONE',  ( -3.000000000000000400, 0.0000000000000000000, 165.0000000000000000 ) ) ;
#94 = DIRECTION ( 'NONE',  ( -0.0000000000000000000, -0.0000000000000000000, -1.000000000000000000 ) ) ;
#95 = PERSON_AND_ORGANIZATION ( #118, #96 ) ;
#96 = ORGANIZATION ( 'UNSPECIFIED', 'UNSPECIFIED', '' ) ;
#97 = APPLICATION_CONTEXT ( 'configuration controlled 3d designs of mechanical parts and assemblies' ) ;
#98 = AXIS2_PLACEMENT_3D ( 'NONE', #175, #116, #117 ) ;
#99 = PRODUCT_DEFINITION_SHAPE ( 'NONE', 'NONE',  #154 ) ;
#100 = PRODUCT_RELATED_PRODUCT_CATEGORY ( 'detail', '', ( #119 ) ) ;
#101 = CC_DESIGN_SECURITY_CLASSIFICATION ( #166, ( #133 ) ) ;
#102 = CC_DESIGN_APPROVAL ( #110, ( #166 ) ) ;
#103 = APPROVAL_DATE_TIME ( #104, #110 ) ;
#104 = DATE_AND_TIME ( #105, #106 ) ;
#105 = CALENDAR_DATE ( 2012, 5, 9 ) ;
#106 = LOCAL_TIME ( 17, 18, 48.00000000000000000, #107 ) ;
#107 = COORDINATED_UNIVERSAL_TIME_OFFSET ( 1, 0, .AHEAD. ) ;
#108 = APPROVAL_PERSON_ORGANIZATION ( #112, #110, #109 ) ;
#109 = APPROVAL_ROLE ( '' ) ;
#110 = APPROVAL ( #111, 'UNSPECIFIED' ) ;
#111 = APPROVAL_STATUS ( 'not_yet_approved' ) ;
#112 = PERSON_AND_ORGANIZATION ( #118, #96 ) ;
#113 = CC_DESIGN_DATE_AND_TIME_ASSIGNMENT ( #115, #114, ( #166 ) ) ;
#114 = DATE_TIME_ROLE ( 'classification_date' ) ;
#115 = DATE_AND_TIME ( #160, #161 ) ;
#116 = DIRECTION ( 'NONE',  ( 0.0000000000000000000, 0.0000000000000000000, 1.000000000000000000 ) ) ;
#117 = DIRECTION ( 'NONE',  ( 1.000000000000000000, 0.0000000000000000000, 0.0000000000000000000 ) ) ;
#118 = PERSON ( 'UNSPECIFIED', 'UNSPECIFIED', 'UNSPECIFIED', ('UNSPECIFIED'), ('UNSPECIFIED'), ('UNSPECIFIED') ) ;
#119 = PRODUCT ( 'PH160000-330', 'PH160000-330', '', ( #173 ) ) ;
#120 = PERSON_AND_ORGANIZATION_ROLE ( 'creator' ) ;
#121 = PERSON_AND_ORGANIZATION ( #118, #96 ) ;
#122 = CC_DESIGN_APPROVAL ( #130, ( #133 ) ) ;
#123 = APPROVAL_DATE_TIME ( #124, #130 ) ;
#124 = DATE_AND_TIME ( #125, #126 ) ;
#125 = CALENDAR_DATE ( 2012, 5, 9 ) ;
#126 = LOCAL_TIME ( 17, 18, 48.00000000000000000, #127 ) ;
#127 = COORDINATED_UNIVERSAL_TIME_OFFSET ( 1, 0, .AHEAD. ) ;
#128 = APPROVAL_PERSON_ORGANIZATION ( #132, #130, #129 ) ;
#129 = APPROVAL_ROLE ( '' ) ;
#130 = APPROVAL ( #131, 'UNSPECIFIED' ) ;
#131 = APPROVAL_STATUS ( 'not_yet_approved' ) ;
#132 = PERSON_AND_ORGANIZATION ( #118, #96 ) ;
#133 = PRODUCT_DEFINITION_FORMATION_WITH_SPECIFIED_SOURCE ( 'ANY', '', #119, .NOT_KNOWN. ) ;
#134 = CC_DESIGN_DATE_AND_TIME_ASSIGNMENT ( #136, #135, ( #154 ) ) ;
#135 = DATE_TIME_ROLE ( 'creation_date' ) ;
#136 = DATE_AND_TIME ( #137, #138 ) ;
#137 = CALENDAR_DATE ( 2012, 5, 9 ) ;
#138 = LOCAL_TIME ( 17, 18, 48.00000000000000000, #139 ) ;
#139 = COORDINATED_UNIVERSAL_TIME_OFFSET ( 1, 0, .AHEAD. ) ;
#140 = CC_DESIGN_PERSON_AND_ORGANIZATION_ASSIGNMENT ( #142, #141, ( #154 ) ) ;
#141 = PERSON_AND_ORGANIZATION_ROLE ( 'creator' ) ;
#142 = PERSON_AND_ORGANIZATION ( #118, #96 ) ;
#143 = CC_DESIGN_APPROVAL ( #151, ( #154 ) ) ;
#144 = APPROVAL_DATE_TIME ( #145, #151 ) ;
#145 = DATE_AND_TIME ( #146, #147 ) ;
#146 = CALENDAR_DATE ( 2012, 5, 9 ) ;
#147 = LOCAL_TIME ( 17, 18, 48.00000000000000000, #148 ) ;
#148 = COORDINATED_UNIVERSAL_TIME_OFFSET ( 1, 0, .AHEAD. ) ;
#149 = APPROVAL_PERSON_ORGANIZATION ( #153, #151, #150 ) ;
#150 = APPROVAL_ROLE ( '' ) ;
#151 = APPROVAL ( #152, 'UNSPECIFIED' ) ;
#152 = APPROVAL_STATUS ( 'not_yet_approved' ) ;
#153 = PERSON_AND_ORGANIZATION ( #118, #96 ) ;
#154 = PRODUCT_DEFINITION ( 'UNKNOWN', '', #133, #155 ) ;
#155 = DESIGN_CONTEXT ( 'detailed design', #157, 'design' ) ;
#156 = APPLICATION_PROTOCOL_DEFINITION ( 'international standard', 'config_control_design', 1994, #157 ) ;
#157 = APPLICATION_CONTEXT ( 'configuration controlled 3d designs of mechanical parts and assemblies' ) ;
#158 = CC_DESIGN_PERSON_AND_ORGANIZATION_ASSIGNMENT ( #95, #159, ( #119 ) ) ;
#159 = PERSON_AND_ORGANIZATION_ROLE ( 'design_owner' ) ;
#160 = CALENDAR_DATE ( 2012, 5, 9 ) ;
#161 = LOCAL_TIME ( 17, 18, 48.00000000000000000, #162 ) ;
#162 = COORDINATED_UNIVERSAL_TIME_OFFSET ( 1, 0, .AHEAD. ) ;
#163 = CC_DESIGN_PERSON_AND_ORGANIZATION_ASSIGNMENT ( #165, #164, ( #166 ) ) ;
#164 = PERSON_AND_ORGANIZATION_ROLE ( 'classification_officer' ) ;
#165 = PERSON_AND_ORGANIZATION ( #118, #96 ) ;
#166 = SECURITY_CLASSIFICATION ( '', '', #167 ) ;
#167 = SECURITY_CLASSIFICATION_LEVEL ( 'unclassified' ) ;
#168 = CC_DESIGN_PERSON_AND_ORGANIZATION_ASSIGNMENT ( #170, #169, ( #133 ) ) ;
#169 = PERSON_AND_ORGANIZATION_ROLE ( 'design_supplier' ) ;
#170 = PERSON_AND_ORGANIZATION ( #118, #96 ) ;
#171 = CC_DESIGN_PERSON_AND_ORGANIZATION_ASSIGNMENT ( #121, #120, ( #133 ) ) ;
#172 = SHAPE_DEFINITION_REPRESENTATION ( #99, #71 ) ;
#173 = MECHANICAL_CONTEXT ( 'NONE', #97, 'mechanical' ) ;
#174 = APPLICATION_PROTOCOL_DEFINITION ( 'international standard', 'config_control_design', 1994, #97 ) ;
#175 = CARTESIAN_POINT ( 'NONE',  ( 0.0000000000000000000, 0.0000000000000000000, 0.0000000000000000000 ) ) ;
ENDSEC;
END-ISO-10303-21;
