ISO-10303-21;
HEADER;
FILE_DESCRIPTION (( 'STEP AP203' ),
    '1' );
FILE_NAME ('PH160000-500.STP',
    '2012-09-05T15:19:30',
    ( 'dis05' ),
    ( '' ),
    'SwSTEP 2.0',
    'SolidWorks 2010',
    '' );
FILE_SCHEMA (( 'CONFIG_CONTROL_DESIGN' ));
ENDSEC;

DATA;
#1 = ADVANCED_FACE ( 'NONE', ( #36 ), #79, .T. ) ;
#2 = ORIENTED_EDGE ( 'NONE', *, *, #8, .F. ) ;
#3 = ORIENTED_EDGE ( 'NONE', *, *, #31, .T. ) ;
#4 = EDGE_LOOP ( 'NONE', ( #3, #5 ) ) ;
#5 = ORIENTED_EDGE ( 'NONE', *, *, #9, .T. ) ;
#6 = ORIENTED_EDGE ( 'NONE', *, *, #30, .F. ) ;
#7 = VERTEX_POINT ( 'NONE', #108 ) ;
#8 = EDGE_CURVE ( 'NONE', #13, #18, #96, .T. ) ;
#9 = EDGE_CURVE ( 'NONE', #7, #16, #94, .T. ) ;
#10 = EDGE_LOOP ( 'NONE', ( #22, #19, #26, #28 ) ) ;
#11 = ORIENTED_EDGE ( 'NONE', *, *, #14, .T. ) ;
#12 = EDGE_CURVE ( 'NONE', #16, #18, #42, .T. ) ;
#13 = VERTEX_POINT ( 'NONE', #91 ) ;
#14 = EDGE_CURVE ( 'NONE', #7, #13, #46, .T. ) ;
#15 = ORIENTED_EDGE ( 'NONE', *, *, #12, .F. ) ;
#16 = VERTEX_POINT ( 'NONE', #60 ) ;
#17 = ORIENTED_EDGE ( 'NONE', *, *, #9, .F. ) ;
#18 = VERTEX_POINT ( 'NONE', #72 ) ;
#19 = ORIENTED_EDGE ( 'NONE', *, *, #31, .F. ) ;
#20 = ADVANCED_FACE ( 'NONE', ( #49 ), #50, .T. ) ;
#21 = ORIENTED_EDGE ( 'NONE', *, *, #8, .T. ) ;
#22 = ORIENTED_EDGE ( 'NONE', *, *, #14, .F. ) ;
#23 = ADVANCED_FACE ( 'NONE', ( #40 ), #39, .T. ) ;
#24 = MANIFOLD_SOLID_BREP ( 'Saliente-Extruir1', #29 ) ;
#25 = EDGE_LOOP ( 'NONE', ( #17, #11, #21, #15 ) ) ;
#26 = ORIENTED_EDGE ( 'NONE', *, *, #12, .T. ) ;
#27 = ADVANCED_FACE ( 'NONE', ( #103 ), #69, .F. ) ;
#28 = ORIENTED_EDGE ( 'NONE', *, *, #30, .T. ) ;
#29 = CLOSED_SHELL ( 'NONE', ( #23, #20, #1, #27 ) ) ;
#30 = EDGE_CURVE ( 'NONE', #18, #13, #102, .T. ) ;
#31 = EDGE_CURVE ( 'NONE', #16, #7, #98, .T. ) ;
#32 = EDGE_LOOP ( 'NONE', ( #6, #2 ) ) ;
#33 = MECHANICAL_CONTEXT ( 'NONE', #35, 'mechanical' ) ;
#34 = APPLICATION_PROTOCOL_DEFINITION ( 'international standard', 'config_control_design', 1994, #35 ) ;
#35 = APPLICATION_CONTEXT ( 'configuration controlled 3d designs of mechanical parts and assemblies' ) ;
#36 = FACE_OUTER_BOUND ( 'NONE', #4, .T. ) ;
#37 = DIRECTION ( 'NONE',  ( 1.000000000000000000, 0.0000000000000000000, -0.0000000000000000000 ) ) ;
#38 = AXIS2_PLACEMENT_3D ( 'NONE', #88, #95, #37 ) ;
#39 = CYLINDRICAL_SURFACE ( 'NONE', #71, 3.000000000000000400 ) ;
#40 = FACE_OUTER_BOUND ( 'NONE', #25, .T. ) ;
#41 = CARTESIAN_POINT ( 'NONE',  ( -3.000000000000000400, 0.0000000000000000000, 250.0000000000000000 ) ) ;
#42 = LINE ( 'NONE', #41, #48 ) ;
#43 = DIRECTION ( 'NONE',  ( 1.000000000000000000, 0.0000000000000000000, 0.0000000000000000000 ) ) ;
#44 = CARTESIAN_POINT ( 'NONE',  ( 0.0000000000000000000, 0.0000000000000000000, 250.0000000000000000 ) ) ;
#45 = CARTESIAN_POINT ( 'NONE',  ( 3.000000000000000400, 3.673940397442060400E-016, 250.0000000000000000 ) ) ;
#46 = LINE ( 'NONE', #45, #62 ) ;
#47 = DIRECTION ( 'NONE',  ( -0.0000000000000000000, -0.0000000000000000000, -1.000000000000000000 ) ) ;
#48 = VECTOR ( 'NONE', #47, 1000.000000000000000 ) ;
#49 = FACE_OUTER_BOUND ( 'NONE', #10, .T. ) ;
#50 = CYLINDRICAL_SURFACE ( 'NONE', #63, 3.000000000000000400 ) ;
#51 = UNCERTAINTY_MEASURE_WITH_UNIT (LENGTH_MEASURE( 1.000000000000000100E-005 ), #54, 'distance_accuracy_value', 'NONE');
#52 =( NAMED_UNIT ( * ) SI_UNIT ( $, .STERADIAN. ) SOLID_ANGLE_UNIT ( ) );
#53 =( NAMED_UNIT ( * ) PLANE_ANGLE_UNIT ( ) SI_UNIT ( $, .RADIAN. ) );
#54 =( LENGTH_UNIT ( ) NAMED_UNIT ( * ) SI_UNIT ( .MILLI., .METRE. ) );
#55 = CARTESIAN_POINT ( 'NONE',  ( 0.0000000000000000000, 0.0000000000000000000, 0.0000000000000000000 ) ) ;
#56 = DIRECTION ( 'NONE',  ( 1.000000000000000000, 0.0000000000000000000, -0.0000000000000000000 ) ) ;
#57 = DIRECTION ( 'NONE',  ( 0.0000000000000000000, 0.0000000000000000000, 1.000000000000000000 ) ) ;
#58 = AXIS2_PLACEMENT_3D ( 'NONE', #68, #57, #56 ) ;
#59 = CARTESIAN_POINT ( 'NONE',  ( 0.0000000000000000000, 0.0000000000000000000, 250.0000000000000000 ) ) ;
#60 = CARTESIAN_POINT ( 'NONE',  ( -3.000000000000000400, 0.0000000000000000000, 250.0000000000000000 ) ) ;
#61 = DIRECTION ( 'NONE',  ( -0.0000000000000000000, -0.0000000000000000000, -1.000000000000000000 ) ) ;
#62 = VECTOR ( 'NONE', #61, 1000.000000000000000 ) ;
#63 = AXIS2_PLACEMENT_3D ( 'NONE', #87, #81, #80 ) ;
#64 = PERSON_AND_ORGANIZATION ( #65, #86 ) ;
#65 = PERSON ( 'UNSPECIFIED', 'UNSPECIFIED', 'UNSPECIFIED', ('UNSPECIFIED'), ('UNSPECIFIED'), ('UNSPECIFIED') ) ;
#66 = ADVANCED_BREP_SHAPE_REPRESENTATION ( 'PH160000-500', ( #24, #106 ), #67 ) ;
#67 =( GEOMETRIC_REPRESENTATION_CONTEXT ( 3 ) GLOBAL_UNCERTAINTY_ASSIGNED_CONTEXT ( ( #51 ) ) GLOBAL_UNIT_ASSIGNED_CONTEXT ( ( #54, #53, #52 ) ) REPRESENTATION_CONTEXT ( 'NONE', 'WORKASPACE' ) );
#68 = CARTESIAN_POINT ( 'NONE',  ( 0.0000000000000000000, 0.0000000000000000000, -250.0000000000000000 ) ) ;
#69 = PLANE ( 'NONE',  #58 ) ;
#70 = AXIS2_PLACEMENT_3D ( 'NONE', #59, #74, #73 ) ;
#71 = AXIS2_PLACEMENT_3D ( 'NONE', #101, #100, #99 ) ;
#72 = CARTESIAN_POINT ( 'NONE',  ( -3.000000000000000400, 0.0000000000000000000, -250.0000000000000000 ) ) ;
#73 = DIRECTION ( 'NONE',  ( 1.000000000000000000, 0.0000000000000000000, 0.0000000000000000000 ) ) ;
#74 = DIRECTION ( 'NONE',  ( 0.0000000000000000000, 0.0000000000000000000, 1.000000000000000000 ) ) ;
#75 = DIRECTION ( 'NONE',  ( 1.000000000000000000, 0.0000000000000000000, 0.0000000000000000000 ) ) ;
#76 = DIRECTION ( 'NONE',  ( 0.0000000000000000000, 0.0000000000000000000, 1.000000000000000000 ) ) ;
#77 = CARTESIAN_POINT ( 'NONE',  ( 0.0000000000000000000, 0.0000000000000000000, -250.0000000000000000 ) ) ;
#78 = AXIS2_PLACEMENT_3D ( 'NONE', #77, #76, #75 ) ;
#79 = PLANE ( 'NONE',  #38 ) ;
#80 = DIRECTION ( 'NONE',  ( -1.000000000000000000, 0.0000000000000000000, 0.0000000000000000000 ) ) ;
#81 = DIRECTION ( 'NONE',  ( -0.0000000000000000000, -0.0000000000000000000, -1.000000000000000000 ) ) ;
#82 = APPLICATION_PROTOCOL_DEFINITION ( 'international standard', 'config_control_design', 1994, #83 ) ;
#83 = APPLICATION_CONTEXT ( 'configuration controlled 3d designs of mechanical parts and assemblies' ) ;
#84 = CC_DESIGN_PERSON_AND_ORGANIZATION_ASSIGNMENT ( #64, #85, ( #104 ) ) ;
#85 = PERSON_AND_ORGANIZATION_ROLE ( 'design_owner' ) ;
#86 = ORGANIZATION ( 'UNSPECIFIED', 'UNSPECIFIED', '' ) ;
#87 = CARTESIAN_POINT ( 'NONE',  ( 0.0000000000000000000, 0.0000000000000000000, 250.0000000000000000 ) ) ;
#88 = CARTESIAN_POINT ( 'NONE',  ( 0.0000000000000000000, 0.0000000000000000000, 250.0000000000000000 ) ) ;
#89 = DIRECTION ( 'NONE',  ( 1.000000000000000000, 0.0000000000000000000, 0.0000000000000000000 ) ) ;
#90 = DIRECTION ( 'NONE',  ( 0.0000000000000000000, 0.0000000000000000000, 1.000000000000000000 ) ) ;
#91 = CARTESIAN_POINT ( 'NONE',  ( 3.000000000000000400, 3.673940397442060400E-016, -250.0000000000000000 ) ) ;
#92 = DIRECTION ( 'NONE',  ( 0.0000000000000000000, 0.0000000000000000000, 1.000000000000000000 ) ) ;
#93 = CARTESIAN_POINT ( 'NONE',  ( 0.0000000000000000000, 0.0000000000000000000, -250.0000000000000000 ) ) ;
#94 = CIRCLE ( 'NONE', #97, 3.000000000000000400 ) ;
#95 = DIRECTION ( 'NONE',  ( 0.0000000000000000000, 0.0000000000000000000, 1.000000000000000000 ) ) ;
#96 = CIRCLE ( 'NONE', #109, 3.000000000000000400 ) ;
#97 = AXIS2_PLACEMENT_3D ( 'NONE', #44, #90, #89 ) ;
#98 = CIRCLE ( 'NONE', #70, 3.000000000000000400 ) ;
#99 = DIRECTION ( 'NONE',  ( -1.000000000000000000, 0.0000000000000000000, 0.0000000000000000000 ) ) ;
#100 = DIRECTION ( 'NONE',  ( -0.0000000000000000000, -0.0000000000000000000, -1.000000000000000000 ) ) ;
#101 = CARTESIAN_POINT ( 'NONE',  ( 0.0000000000000000000, 0.0000000000000000000, 250.0000000000000000 ) ) ;
#102 = CIRCLE ( 'NONE', #78, 3.000000000000000400 ) ;
#103 = FACE_OUTER_BOUND ( 'NONE', #32, .T. ) ;
#104 = PRODUCT ( 'PH160000-500', 'PH160000-500', '', ( #33 ) ) ;
#105 = DIRECTION ( 'NONE',  ( 1.000000000000000000, 0.0000000000000000000, 0.0000000000000000000 ) ) ;
#106 = AXIS2_PLACEMENT_3D ( 'NONE', #55, #107, #105 ) ;
#107 = DIRECTION ( 'NONE',  ( 0.0000000000000000000, 0.0000000000000000000, 1.000000000000000000 ) ) ;
#108 = CARTESIAN_POINT ( 'NONE',  ( 3.000000000000000400, 3.673940397442060400E-016, 250.0000000000000000 ) ) ;
#109 = AXIS2_PLACEMENT_3D ( 'NONE', #93, #92, #43 ) ;
#110 = APPROVAL_PERSON_ORGANIZATION ( #162, #121, #143 ) ;
#111 = APPROVAL_STATUS ( 'not_yet_approved' ) ;
#112 = PERSON_AND_ORGANIZATION ( #65, #86 ) ;
#113 = CC_DESIGN_DATE_AND_TIME_ASSIGNMENT ( #115, #114, ( #174 ) ) ;
#114 = DATE_TIME_ROLE ( 'classification_date' ) ;
#115 = DATE_AND_TIME ( #165, #166 ) ;
#116 = APPROVAL_DATE_TIME ( #173, #121 ) ;
#117 = COORDINATED_UNIVERSAL_TIME_OFFSET ( 1, 0, .AHEAD. ) ;
#118 = CC_DESIGN_PERSON_AND_ORGANIZATION_ASSIGNMENT ( #120, #119, ( #174 ) ) ;
#119 = PERSON_AND_ORGANIZATION_ROLE ( 'classification_officer' ) ;
#120 = PERSON_AND_ORGANIZATION ( #65, #86 ) ;
#121 = APPROVAL ( #141, 'UNSPECIFIED' ) ;
#122 = PRODUCT_RELATED_PRODUCT_CATEGORY ( 'detail', '', ( #104 ) ) ;
#123 = PERSON_AND_ORGANIZATION_ROLE ( 'creator' ) ;
#124 = APPROVAL_DATE_TIME ( #153, #155 ) ;
#125 = CALENDAR_DATE ( 2012, 5, 9 ) ;
#126 = LOCAL_TIME ( 17, 19, 30.00000000000000000, #127 ) ;
#127 = COORDINATED_UNIVERSAL_TIME_OFFSET ( 1, 0, .AHEAD. ) ;
#128 = APPROVAL_PERSON_ORGANIZATION ( #112, #155, #154 ) ;
#129 = CALENDAR_DATE ( 2012, 5, 9 ) ;
#130 = PERSON_AND_ORGANIZATION_ROLE ( 'design_supplier' ) ;
#131 = PERSON_AND_ORGANIZATION ( #65, #86 ) ;
#132 = LOCAL_TIME ( 17, 19, 30.00000000000000000, #144 ) ;
#133 = APPROVAL ( #134, 'UNSPECIFIED' ) ;
#134 = APPROVAL_STATUS ( 'not_yet_approved' ) ;
#135 = PERSON_AND_ORGANIZATION ( #65, #86 ) ;
#136 = PERSON_AND_ORGANIZATION ( #65, #86 ) ;
#137 = CC_DESIGN_APPROVAL ( #133, ( #145 ) ) ;
#138 = APPROVAL_DATE_TIME ( #170, #133 ) ;
#139 = DATE_AND_TIME ( #140, #168 ) ;
#140 = CALENDAR_DATE ( 2012, 5, 9 ) ;
#141 = APPROVAL_STATUS ( 'not_yet_approved' ) ;
#142 = CC_DESIGN_PERSON_AND_ORGANIZATION_ASSIGNMENT ( #164, #123, ( #152 ) ) ;
#143 = APPROVAL_ROLE ( '' ) ;
#144 = COORDINATED_UNIVERSAL_TIME_OFFSET ( 1, 0, .AHEAD. ) ;
#145 = PRODUCT_DEFINITION_FORMATION_WITH_SPECIFIED_SOURCE ( 'ANY', '', #104, .NOT_KNOWN. ) ;
#146 = CC_DESIGN_DATE_AND_TIME_ASSIGNMENT ( #139, #167, ( #152 ) ) ;
#147 = CC_DESIGN_PERSON_AND_ORGANIZATION_ASSIGNMENT ( #131, #130, ( #145 ) ) ;
#148 = CC_DESIGN_PERSON_AND_ORGANIZATION_ASSIGNMENT ( #136, #163, ( #145 ) ) ;
#149 = CC_DESIGN_SECURITY_CLASSIFICATION ( #174, ( #145 ) ) ;
#150 = CC_DESIGN_APPROVAL ( #155, ( #174 ) ) ;
#151 = DESIGN_CONTEXT ( 'detailed design', #83, 'design' ) ;
#152 = PRODUCT_DEFINITION ( 'UNKNOWN', '', #145, #151 ) ;
#153 = DATE_AND_TIME ( #125, #126 ) ;
#154 = APPROVAL_ROLE ( '' ) ;
#155 = APPROVAL ( #111, 'UNSPECIFIED' ) ;
#156 = CALENDAR_DATE ( 2012, 5, 9 ) ;
#157 = LOCAL_TIME ( 17, 19, 30.00000000000000000, #158 ) ;
#158 = COORDINATED_UNIVERSAL_TIME_OFFSET ( 1, 0, .AHEAD. ) ;
#159 = CC_DESIGN_APPROVAL ( #121, ( #152 ) ) ;
#160 = SHAPE_DEFINITION_REPRESENTATION ( #161, #66 ) ;
#161 = PRODUCT_DEFINITION_SHAPE ( 'NONE', 'NONE',  #152 ) ;
#162 = PERSON_AND_ORGANIZATION ( #65, #86 ) ;
#163 = PERSON_AND_ORGANIZATION_ROLE ( 'creator' ) ;
#164 = PERSON_AND_ORGANIZATION ( #65, #86 ) ;
#165 = CALENDAR_DATE ( 2012, 5, 9 ) ;
#166 = LOCAL_TIME ( 17, 19, 30.00000000000000000, #117 ) ;
#167 = DATE_TIME_ROLE ( 'creation_date' ) ;
#168 = LOCAL_TIME ( 17, 19, 30.00000000000000000, #169 ) ;
#169 = COORDINATED_UNIVERSAL_TIME_OFFSET ( 1, 0, .AHEAD. ) ;
#170 = DATE_AND_TIME ( #156, #157 ) ;
#171 = APPROVAL_PERSON_ORGANIZATION ( #135, #133, #172 ) ;
#172 = APPROVAL_ROLE ( '' ) ;
#173 = DATE_AND_TIME ( #129, #132 ) ;
#174 = SECURITY_CLASSIFICATION ( '', '', #175 ) ;
#175 = SECURITY_CLASSIFICATION_LEVEL ( 'unclassified' ) ;
ENDSEC;
END-ISO-10303-21;
