ISO-10303-21;
HEADER;
FILE_DESCRIPTION (( 'STEP AP203' ),
    '1' );
FILE_NAME ('PH180000-250.STP',
    '2012-09-05T15:26:37',
    ( 'dis05' ),
    ( '' ),
    'SwSTEP 2.0',
    'SolidWorks 2010',
    '' );
FILE_SCHEMA (( 'CONFIG_CONTROL_DESIGN' ));
ENDSEC;

DATA;
#1 = ORIENTED_EDGE ( 'NONE', *, *, #33, .F. ) ;
#2 = VERTEX_POINT ( 'NONE', #36 ) ;
#3 = EDGE_LOOP ( 'NONE', ( #18, #12 ) ) ;
#4 = EDGE_LOOP ( 'NONE', ( #1, #14, #10, #8 ) ) ;
#5 = EDGE_CURVE ( 'NONE', #2, #34, #167, .T. ) ;
#6 = ADVANCED_FACE ( 'NONE', ( #42 ), #43, .T. ) ;
#7 = ADVANCED_FACE ( 'NONE', ( #106 ), #70, .T. ) ;
#8 = ORIENTED_EDGE ( 'NONE', *, *, #13, .T. ) ;
#9 = EDGE_CURVE ( 'NONE', #2, #28, #132, .T. ) ;
#10 = ORIENTED_EDGE ( 'NONE', *, *, #5, .T. ) ;
#11 = ORIENTED_EDGE ( 'NONE', *, *, #13, .F. ) ;
#12 = ORIENTED_EDGE ( 'NONE', *, *, #27, .T. ) ;
#13 = EDGE_CURVE ( 'NONE', #34, #30, #69, .T. ) ;
#14 = ORIENTED_EDGE ( 'NONE', *, *, #9, .F. ) ;
#15 = ORIENTED_EDGE ( 'NONE', *, *, #35, .F. ) ;
#16 = ADVANCED_FACE ( 'NONE', ( #44 ), #174, .F. ) ;
#17 = EDGE_LOOP ( 'NONE', ( #11, #15 ) ) ;
#18 = ORIENTED_EDGE ( 'NONE', *, *, #9, .T. ) ;
#19 = CLOSED_SHELL ( 'NONE', ( #25, #6, #7, #16 ) ) ;
#20 = SHAPE_DEFINITION_REPRESENTATION ( #21, #41 ) ;
#21 = PRODUCT_DEFINITION_SHAPE ( 'NONE', 'NONE',  #161 ) ;
#22 = PRODUCT_RELATED_PRODUCT_CATEGORY ( 'detail', '', ( #171 ) ) ;
#23 = ORIENTED_EDGE ( 'NONE', *, *, #5, .F. ) ;
#24 = MANIFOLD_SOLID_BREP ( 'Saliente-Extruir1', #19 ) ;
#25 = ADVANCED_FACE ( 'NONE', ( #100 ), #68, .T. ) ;
#26 = ORIENTED_EDGE ( 'NONE', *, *, #33, .T. ) ;
#27 = EDGE_CURVE ( 'NONE', #28, #2, #126, .T. ) ;
#28 = VERTEX_POINT ( 'NONE', #99 ) ;
#29 = ORIENTED_EDGE ( 'NONE', *, *, #27, .F. ) ;
#30 = VERTEX_POINT ( 'NONE', #46 ) ;
#31 = ORIENTED_EDGE ( 'NONE', *, *, #35, .T. ) ;
#32 = EDGE_LOOP ( 'NONE', ( #29, #26, #31, #23 ) ) ;
#33 = EDGE_CURVE ( 'NONE', #28, #30, #144, .T. ) ;
#34 = VERTEX_POINT ( 'NONE', #175 ) ;
#35 = EDGE_CURVE ( 'NONE', #30, #34, #133, .T. ) ;
#36 = CARTESIAN_POINT ( 'NONE',  ( -4.000000000000000000, 0.0000000000000000000, 125.0000000000000000 ) ) ;
#37 = DIRECTION ( 'NONE',  ( 1.000000000000000000, 0.0000000000000000000, 0.0000000000000000000 ) ) ;
#38 = APPLICATION_CONTEXT ( 'configuration controlled 3d designs of mechanical parts and assemblies' ) ;
#39 = AXIS2_PLACEMENT_3D ( 'NONE', #138, #40, #37 ) ;
#40 = DIRECTION ( 'NONE',  ( 0.0000000000000000000, 0.0000000000000000000, 1.000000000000000000 ) ) ;
#41 = ADVANCED_BREP_SHAPE_REPRESENTATION ( 'PH180000-250', ( #24, #39 ), #90 ) ;
#42 = FACE_OUTER_BOUND ( 'NONE', #4, .T. ) ;
#43 = CYLINDRICAL_SURFACE ( 'NONE', #135, 4.000000000000000000 ) ;
#44 = FACE_OUTER_BOUND ( 'NONE', #17, .T. ) ;
#45 = CARTESIAN_POINT ( 'NONE',  ( 0.0000000000000000000, 0.0000000000000000000, 125.0000000000000000 ) ) ;
#46 = CARTESIAN_POINT ( 'NONE',  ( 4.000000000000000000, 4.898587196589412800E-016, -125.0000000000000000 ) ) ;
#47 = CARTESIAN_POINT ( 'NONE',  ( 0.0000000000000000000, 0.0000000000000000000, -125.0000000000000000 ) ) ;
#48 = DIRECTION ( 'NONE',  ( -0.0000000000000000000, -0.0000000000000000000, -1.000000000000000000 ) ) ;
#49 = VECTOR ( 'NONE', #48, 1000.000000000000000 ) ;
#50 = CARTESIAN_POINT ( 'NONE',  ( 4.000000000000000000, 4.898587196589412800E-016, 125.0000000000000000 ) ) ;
#51 = AXIS2_PLACEMENT_3D ( 'NONE', #104, #103, #102 ) ;
#52 = DATE_AND_TIME ( #53, #54 ) ;
#53 = CALENDAR_DATE ( 2012, 5, 9 ) ;
#54 = LOCAL_TIME ( 17, 26, 37.00000000000000000, #55 ) ;
#55 = COORDINATED_UNIVERSAL_TIME_OFFSET ( 1, 0, .AHEAD. ) ;
#56 = CC_DESIGN_PERSON_AND_ORGANIZATION_ASSIGNMENT ( #58, #57, ( #59 ) ) ;
#57 = PERSON_AND_ORGANIZATION_ROLE ( 'classification_officer' ) ;
#58 = PERSON_AND_ORGANIZATION ( #170, #169 ) ;
#59 = SECURITY_CLASSIFICATION ( '', '', #60 ) ;
#60 = SECURITY_CLASSIFICATION_LEVEL ( 'unclassified' ) ;
#61 = CC_DESIGN_PERSON_AND_ORGANIZATION_ASSIGNMENT ( #63, #62, ( #121 ) ) ;
#62 = PERSON_AND_ORGANIZATION_ROLE ( 'design_supplier' ) ;
#63 = PERSON_AND_ORGANIZATION ( #170, #169 ) ;
#64 = DIRECTION ( 'NONE',  ( 1.000000000000000000, 0.0000000000000000000, 0.0000000000000000000 ) ) ;
#65 = DIRECTION ( 'NONE',  ( 0.0000000000000000000, 0.0000000000000000000, 1.000000000000000000 ) ) ;
#66 = CARTESIAN_POINT ( 'NONE',  ( 0.0000000000000000000, 0.0000000000000000000, -125.0000000000000000 ) ) ;
#67 = AXIS2_PLACEMENT_3D ( 'NONE', #66, #65, #64 ) ;
#68 = CYLINDRICAL_SURFACE ( 'NONE', #105, 4.000000000000000000 ) ;
#69 = CIRCLE ( 'NONE', #67, 4.000000000000000000 ) ;
#70 = PLANE ( 'NONE',  #51 ) ;
#71 = VECTOR ( 'NONE', #134, 1000.000000000000000 ) ;
#72 = AXIS2_PLACEMENT_3D ( 'NONE', #131, #95, #130 ) ;
#73 =( NAMED_UNIT ( * ) PLANE_ANGLE_UNIT ( ) SI_UNIT ( $, .RADIAN. ) );
#74 =( LENGTH_UNIT ( ) NAMED_UNIT ( * ) SI_UNIT ( .MILLI., .METRE. ) );
#75 = CC_DESIGN_SECURITY_CLASSIFICATION ( #59, ( #121 ) ) ;
#76 = CC_DESIGN_APPROVAL ( #84, ( #59 ) ) ;
#77 = APPROVAL_DATE_TIME ( #78, #84 ) ;
#78 = DATE_AND_TIME ( #79, #80 ) ;
#79 = CALENDAR_DATE ( 2012, 5, 9 ) ;
#80 = LOCAL_TIME ( 17, 26, 37.00000000000000000, #81 ) ;
#81 = COORDINATED_UNIVERSAL_TIME_OFFSET ( 1, 0, .AHEAD. ) ;
#82 = APPROVAL_PERSON_ORGANIZATION ( #86, #84, #83 ) ;
#83 = APPROVAL_ROLE ( '' ) ;
#84 = APPROVAL ( #85, 'UNSPECIFIED' ) ;
#85 = APPROVAL_STATUS ( 'not_yet_approved' ) ;
#86 = PERSON_AND_ORGANIZATION ( #170, #169 ) ;
#87 = CC_DESIGN_DATE_AND_TIME_ASSIGNMENT ( #52, #88, ( #59 ) ) ;
#88 = DATE_TIME_ROLE ( 'classification_date' ) ;
#89 = DIRECTION ( 'NONE',  ( -1.000000000000000000, 0.0000000000000000000, 0.0000000000000000000 ) ) ;
#90 =( GEOMETRIC_REPRESENTATION_CONTEXT ( 3 ) GLOBAL_UNCERTAINTY_ASSIGNED_CONTEXT ( ( #91 ) ) GLOBAL_UNIT_ASSIGNED_CONTEXT ( ( #74, #73, #92 ) ) REPRESENTATION_CONTEXT ( 'NONE', 'WORKASPACE' ) );
#91 = UNCERTAINTY_MEASURE_WITH_UNIT (LENGTH_MEASURE( 1.000000000000000100E-005 ), #74, 'distance_accuracy_value', 'NONE');
#92 =( NAMED_UNIT ( * ) SI_UNIT ( $, .STERADIAN. ) SOLID_ANGLE_UNIT ( ) );
#93 = DIRECTION ( 'NONE',  ( -0.0000000000000000000, -0.0000000000000000000, -1.000000000000000000 ) ) ;
#94 = CARTESIAN_POINT ( 'NONE',  ( 0.0000000000000000000, 0.0000000000000000000, 125.0000000000000000 ) ) ;
#95 = DIRECTION ( 'NONE',  ( 0.0000000000000000000, 0.0000000000000000000, 1.000000000000000000 ) ) ;
#96 = DIRECTION ( 'NONE',  ( 1.000000000000000000, 0.0000000000000000000, 0.0000000000000000000 ) ) ;
#97 = DIRECTION ( 'NONE',  ( 0.0000000000000000000, 0.0000000000000000000, 1.000000000000000000 ) ) ;
#98 = CARTESIAN_POINT ( 'NONE',  ( 0.0000000000000000000, 0.0000000000000000000, 125.0000000000000000 ) ) ;
#99 = CARTESIAN_POINT ( 'NONE',  ( 4.000000000000000000, 4.898587196589412800E-016, 125.0000000000000000 ) ) ;
#100 = FACE_OUTER_BOUND ( 'NONE', #32, .T. ) ;
#101 = AXIS2_PLACEMENT_3D ( 'NONE', #98, #97, #96 ) ;
#102 = DIRECTION ( 'NONE',  ( 1.000000000000000000, 0.0000000000000000000, -0.0000000000000000000 ) ) ;
#103 = DIRECTION ( 'NONE',  ( 0.0000000000000000000, 0.0000000000000000000, 1.000000000000000000 ) ) ;
#104 = CARTESIAN_POINT ( 'NONE',  ( 0.0000000000000000000, 0.0000000000000000000, 125.0000000000000000 ) ) ;
#105 = AXIS2_PLACEMENT_3D ( 'NONE', #45, #128, #127 ) ;
#106 = FACE_OUTER_BOUND ( 'NONE', #3, .T. ) ;
#107 = CC_DESIGN_PERSON_AND_ORGANIZATION_ASSIGNMENT ( #109, #108, ( #121 ) ) ;
#108 = PERSON_AND_ORGANIZATION_ROLE ( 'creator' ) ;
#109 = PERSON_AND_ORGANIZATION ( #170, #169 ) ;
#110 = CC_DESIGN_APPROVAL ( #118, ( #121 ) ) ;
#111 = APPROVAL_DATE_TIME ( #112, #118 ) ;
#112 = DATE_AND_TIME ( #113, #114 ) ;
#113 = CALENDAR_DATE ( 2012, 5, 9 ) ;
#114 = LOCAL_TIME ( 17, 26, 37.00000000000000000, #115 ) ;
#115 = COORDINATED_UNIVERSAL_TIME_OFFSET ( 1, 0, .AHEAD. ) ;
#116 = APPROVAL_PERSON_ORGANIZATION ( #120, #118, #117 ) ;
#117 = APPROVAL_ROLE ( '' ) ;
#118 = APPROVAL ( #119, 'UNSPECIFIED' ) ;
#119 = APPROVAL_STATUS ( 'not_yet_approved' ) ;
#120 = PERSON_AND_ORGANIZATION ( #170, #169 ) ;
#121 = PRODUCT_DEFINITION_FORMATION_WITH_SPECIFIED_SOURCE ( 'ANY', '', #171, .NOT_KNOWN. ) ;
#122 = CC_DESIGN_DATE_AND_TIME_ASSIGNMENT ( #124, #123, ( #161 ) ) ;
#123 = DATE_TIME_ROLE ( 'creation_date' ) ;
#124 = DATE_AND_TIME ( #125, #145 ) ;
#125 = CALENDAR_DATE ( 2012, 5, 9 ) ;
#126 = CIRCLE ( 'NONE', #139, 4.000000000000000000 ) ;
#127 = DIRECTION ( 'NONE',  ( -1.000000000000000000, 0.0000000000000000000, 0.0000000000000000000 ) ) ;
#128 = DIRECTION ( 'NONE',  ( -0.0000000000000000000, -0.0000000000000000000, -1.000000000000000000 ) ) ;
#129 = AXIS2_PLACEMENT_3D ( 'NONE', #47, #137, #136 ) ;
#130 = DIRECTION ( 'NONE',  ( 1.000000000000000000, 0.0000000000000000000, -0.0000000000000000000 ) ) ;
#131 = CARTESIAN_POINT ( 'NONE',  ( 0.0000000000000000000, 0.0000000000000000000, -125.0000000000000000 ) ) ;
#132 = CIRCLE ( 'NONE', #101, 4.000000000000000000 ) ;
#133 = CIRCLE ( 'NONE', #129, 4.000000000000000000 ) ;
#134 = DIRECTION ( 'NONE',  ( -0.0000000000000000000, -0.0000000000000000000, -1.000000000000000000 ) ) ;
#135 = AXIS2_PLACEMENT_3D ( 'NONE', #94, #93, #89 ) ;
#136 = DIRECTION ( 'NONE',  ( 1.000000000000000000, 0.0000000000000000000, 0.0000000000000000000 ) ) ;
#137 = DIRECTION ( 'NONE',  ( 0.0000000000000000000, 0.0000000000000000000, 1.000000000000000000 ) ) ;
#138 = CARTESIAN_POINT ( 'NONE',  ( 0.0000000000000000000, 0.0000000000000000000, 0.0000000000000000000 ) ) ;
#139 = AXIS2_PLACEMENT_3D ( 'NONE', #143, #142, #141 ) ;
#140 = CARTESIAN_POINT ( 'NONE',  ( -4.000000000000000000, 0.0000000000000000000, 125.0000000000000000 ) ) ;
#141 = DIRECTION ( 'NONE',  ( 1.000000000000000000, 0.0000000000000000000, 0.0000000000000000000 ) ) ;
#142 = DIRECTION ( 'NONE',  ( 0.0000000000000000000, 0.0000000000000000000, 1.000000000000000000 ) ) ;
#143 = CARTESIAN_POINT ( 'NONE',  ( 0.0000000000000000000, 0.0000000000000000000, 125.0000000000000000 ) ) ;
#144 = LINE ( 'NONE', #50, #49 ) ;
#145 = LOCAL_TIME ( 17, 26, 37.00000000000000000, #146 ) ;
#146 = COORDINATED_UNIVERSAL_TIME_OFFSET ( 1, 0, .AHEAD. ) ;
#147 = CC_DESIGN_PERSON_AND_ORGANIZATION_ASSIGNMENT ( #149, #148, ( #161 ) ) ;
#148 = PERSON_AND_ORGANIZATION_ROLE ( 'creator' ) ;
#149 = PERSON_AND_ORGANIZATION ( #170, #169 ) ;
#150 = CC_DESIGN_APPROVAL ( #158, ( #161 ) ) ;
#151 = APPROVAL_DATE_TIME ( #152, #158 ) ;
#152 = DATE_AND_TIME ( #153, #154 ) ;
#153 = CALENDAR_DATE ( 2012, 5, 9 ) ;
#154 = LOCAL_TIME ( 17, 26, 37.00000000000000000, #155 ) ;
#155 = COORDINATED_UNIVERSAL_TIME_OFFSET ( 1, 0, .AHEAD. ) ;
#156 = APPROVAL_PERSON_ORGANIZATION ( #160, #158, #157 ) ;
#157 = APPROVAL_ROLE ( '' ) ;
#158 = APPROVAL ( #159, 'UNSPECIFIED' ) ;
#159 = APPROVAL_STATUS ( 'not_yet_approved' ) ;
#160 = PERSON_AND_ORGANIZATION ( #170, #169 ) ;
#161 = PRODUCT_DEFINITION ( 'UNKNOWN', '', #121, #162 ) ;
#162 = DESIGN_CONTEXT ( 'detailed design', #164, 'design' ) ;
#163 = APPLICATION_PROTOCOL_DEFINITION ( 'international standard', 'config_control_design', 1994, #164 ) ;
#164 = APPLICATION_CONTEXT ( 'configuration controlled 3d designs of mechanical parts and assemblies' ) ;
#165 = CC_DESIGN_PERSON_AND_ORGANIZATION_ASSIGNMENT ( #168, #166, ( #171 ) ) ;
#166 = PERSON_AND_ORGANIZATION_ROLE ( 'design_owner' ) ;
#167 = LINE ( 'NONE', #140, #71 ) ;
#168 = PERSON_AND_ORGANIZATION ( #170, #169 ) ;
#169 = ORGANIZATION ( 'UNSPECIFIED', 'UNSPECIFIED', '' ) ;
#170 = PERSON ( 'UNSPECIFIED', 'UNSPECIFIED', 'UNSPECIFIED', ('UNSPECIFIED'), ('UNSPECIFIED'), ('UNSPECIFIED') ) ;
#171 = PRODUCT ( 'PH180000-250', 'PH180000-250', '', ( #172 ) ) ;
#172 = MECHANICAL_CONTEXT ( 'NONE', #38, 'mechanical' ) ;
#173 = APPLICATION_PROTOCOL_DEFINITION ( 'international standard', 'config_control_design', 1994, #38 ) ;
#174 = PLANE ( 'NONE',  #72 ) ;
#175 = CARTESIAN_POINT ( 'NONE',  ( -4.000000000000000000, 0.0000000000000000000, -125.0000000000000000 ) ) ;
ENDSEC;
END-ISO-10303-21;
