ISO-10303-21;
HEADER;
FILE_DESCRIPTION (( 'STEP AP203' ),
    '1' );
FILE_NAME ('PH180000-330.STP',
    '2012-09-05T15:26:51',
    ( 'dis05' ),
    ( '' ),
    'SwSTEP 2.0',
    'SolidWorks 2010',
    '' );
FILE_SCHEMA (( 'CONFIG_CONTROL_DESIGN' ));
ENDSEC;

DATA;
#1 = LOCAL_TIME ( 17, 26, 51.00000000000000000, #3 ) ;
#2 = CC_DESIGN_DATE_AND_TIME_ASSIGNMENT ( #6, #5, ( #61 ) ) ;
#3 = COORDINATED_UNIVERSAL_TIME_OFFSET ( 1, 0, .AHEAD. ) ;
#4 = CALENDAR_DATE ( 2012, 5, 9 ) ;
#5 = DATE_TIME_ROLE ( 'creation_date' ) ;
#6 = DATE_AND_TIME ( #4, #1 ) ;
#7 =( GEOMETRIC_REPRESENTATION_CONTEXT ( 3 ) GLOBAL_UNCERTAINTY_ASSIGNED_CONTEXT ( ( #8 ) ) GLOBAL_UNIT_ASSIGNED_CONTEXT ( ( #15, #10, #9 ) ) REPRESENTATION_CONTEXT ( 'NONE', 'WORKASPACE' ) );
#8 = UNCERTAINTY_MEASURE_WITH_UNIT (LENGTH_MEASURE( 1.000000000000000100E-005 ), #15, 'distance_accuracy_value', 'NONE');
#9 =( NAMED_UNIT ( * ) SI_UNIT ( $, .STERADIAN. ) SOLID_ANGLE_UNIT ( ) );
#10 =( NAMED_UNIT ( * ) PLANE_ANGLE_UNIT ( ) SI_UNIT ( $, .RADIAN. ) );
#11 = DIRECTION ( 'NONE',  ( 1.000000000000000000, 0.0000000000000000000, -0.0000000000000000000 ) ) ;
#12 = DIRECTION ( 'NONE',  ( 0.0000000000000000000, 0.0000000000000000000, 1.000000000000000000 ) ) ;
#13 = CARTESIAN_POINT ( 'NONE',  ( 0.0000000000000000000, 0.0000000000000000000, -165.0000000000000000 ) ) ;
#14 = CARTESIAN_POINT ( 'NONE',  ( 4.000000000000000000, 4.898587196589412800E-016, 165.0000000000000000 ) ) ;
#15 =( LENGTH_UNIT ( ) NAMED_UNIT ( * ) SI_UNIT ( .MILLI., .METRE. ) );
#16 = MANIFOLD_SOLID_BREP ( 'Saliente-Extruir1', #108 ) ;
#17 = DIRECTION ( 'NONE',  ( 1.000000000000000000, 0.0000000000000000000, 0.0000000000000000000 ) ) ;
#18 = DIRECTION ( 'NONE',  ( 0.0000000000000000000, 0.0000000000000000000, 1.000000000000000000 ) ) ;
#19 = AXIS2_PLACEMENT_3D ( 'NONE', #29, #114, #113 ) ;
#20 = AXIS2_PLACEMENT_3D ( 'NONE', #28, #25, #24 ) ;
#21 = CARTESIAN_POINT ( 'NONE',  ( 0.0000000000000000000, 0.0000000000000000000, 165.0000000000000000 ) ) ;
#22 = CIRCLE ( 'NONE', #19, 4.000000000000000000 ) ;
#23 = DIRECTION ( 'NONE',  ( -0.0000000000000000000, -0.0000000000000000000, -1.000000000000000000 ) ) ;
#24 = DIRECTION ( 'NONE',  ( 1.000000000000000000, 0.0000000000000000000, 0.0000000000000000000 ) ) ;
#25 = DIRECTION ( 'NONE',  ( 0.0000000000000000000, 0.0000000000000000000, 1.000000000000000000 ) ) ;
#26 = LINE ( 'NONE', #73, #72 ) ;
#27 = CARTESIAN_POINT ( 'NONE',  ( -4.000000000000000000, 0.0000000000000000000, -165.0000000000000000 ) ) ;
#28 = CARTESIAN_POINT ( 'NONE',  ( 0.0000000000000000000, 0.0000000000000000000, 165.0000000000000000 ) ) ;
#29 = CARTESIAN_POINT ( 'NONE',  ( 0.0000000000000000000, 0.0000000000000000000, -165.0000000000000000 ) ) ;
#30 = CC_DESIGN_PERSON_AND_ORGANIZATION_ASSIGNMENT ( #32, #31, ( #61 ) ) ;
#31 = PERSON_AND_ORGANIZATION_ROLE ( 'creator' ) ;
#32 = PERSON_AND_ORGANIZATION ( #90, #68 ) ;
#33 = CC_DESIGN_APPROVAL ( #41, ( #61 ) ) ;
#34 = APPROVAL_DATE_TIME ( #35, #41 ) ;
#35 = DATE_AND_TIME ( #36, #37 ) ;
#36 = CALENDAR_DATE ( 2012, 5, 9 ) ;
#37 = LOCAL_TIME ( 17, 26, 51.00000000000000000, #38 ) ;
#38 = COORDINATED_UNIVERSAL_TIME_OFFSET ( 1, 0, .AHEAD. ) ;
#39 = APPROVAL_PERSON_ORGANIZATION ( #43, #41, #40 ) ;
#40 = APPROVAL_ROLE ( '' ) ;
#41 = APPROVAL ( #42, 'UNSPECIFIED' ) ;
#42 = APPROVAL_STATUS ( 'not_yet_approved' ) ;
#43 = PERSON_AND_ORGANIZATION ( #90, #68 ) ;
#44 = ORIENTED_EDGE ( 'NONE', *, *, #78, .F. ) ;
#45 = EDGE_LOOP ( 'NONE', ( #86, #44 ) ) ;
#46 = DIRECTION ( 'NONE',  ( 0.0000000000000000000, 0.0000000000000000000, 1.000000000000000000 ) ) ;
#47 = AXIS2_PLACEMENT_3D ( 'NONE', #53, #46, #126 ) ;
#48 = CIRCLE ( 'NONE', #47, 4.000000000000000000 ) ;
#49 = FACE_OUTER_BOUND ( 'NONE', #112, .T. ) ;
#50 = DIRECTION ( 'NONE',  ( 1.000000000000000000, 0.0000000000000000000, -0.0000000000000000000 ) ) ;
#51 = DIRECTION ( 'NONE',  ( 0.0000000000000000000, 0.0000000000000000000, 1.000000000000000000 ) ) ;
#52 = CARTESIAN_POINT ( 'NONE',  ( 0.0000000000000000000, 0.0000000000000000000, 165.0000000000000000 ) ) ;
#53 = CARTESIAN_POINT ( 'NONE',  ( 0.0000000000000000000, 0.0000000000000000000, 165.0000000000000000 ) ) ;
#54 = PLANE ( 'NONE',  #122 ) ;
#55 = ORIENTED_EDGE ( 'NONE', *, *, #99, .F. ) ;
#56 = CARTESIAN_POINT ( 'NONE',  ( 0.0000000000000000000, 0.0000000000000000000, -165.0000000000000000 ) ) ;
#57 = VERTEX_POINT ( 'NONE', #130 ) ;
#58 = CYLINDRICAL_SURFACE ( 'NONE', #116, 4.000000000000000000 ) ;
#59 = AXIS2_PLACEMENT_3D ( 'NONE', #124, #123, #121 ) ;
#60 = FACE_OUTER_BOUND ( 'NONE', #88, .T. ) ;
#61 = PRODUCT_DEFINITION ( 'UNKNOWN', '', #139, #62 ) ;
#62 = DESIGN_CONTEXT ( 'detailed design', #64, 'design' ) ;
#63 = APPLICATION_PROTOCOL_DEFINITION ( 'international standard', 'config_control_design', 1994, #64 ) ;
#64 = APPLICATION_CONTEXT ( 'configuration controlled 3d designs of mechanical parts and assemblies' ) ;
#65 = CC_DESIGN_PERSON_AND_ORGANIZATION_ASSIGNMENT ( #67, #66, ( #91 ) ) ;
#66 = PERSON_AND_ORGANIZATION_ROLE ( 'design_owner' ) ;
#67 = PERSON_AND_ORGANIZATION ( #90, #68 ) ;
#68 = ORGANIZATION ( 'UNSPECIFIED', 'UNSPECIFIED', '' ) ;
#69 = CYLINDRICAL_SURFACE ( 'NONE', #59, 4.000000000000000000 ) ;
#70 = CARTESIAN_POINT ( 'NONE',  ( 0.0000000000000000000, 0.0000000000000000000, 0.0000000000000000000 ) ) ;
#71 = DIRECTION ( 'NONE',  ( -0.0000000000000000000, -0.0000000000000000000, -1.000000000000000000 ) ) ;
#72 = VECTOR ( 'NONE', #71, 1000.000000000000000 ) ;
#73 = CARTESIAN_POINT ( 'NONE',  ( 4.000000000000000000, 4.898587196589412800E-016, 165.0000000000000000 ) ) ;
#74 = AXIS2_PLACEMENT_3D ( 'NONE', #52, #51, #50 ) ;
#75 = CARTESIAN_POINT ( 'NONE',  ( -4.000000000000000000, 0.0000000000000000000, 165.0000000000000000 ) ) ;
#76 = EDGE_CURVE ( 'NONE', #100, #98, #131, .T. ) ;
#77 = EDGE_CURVE ( 'NONE', #98, #57, #120, .T. ) ;
#78 = EDGE_CURVE ( 'NONE', #57, #98, #22, .T. ) ;
#79 = EDGE_CURVE ( 'NONE', #100, #111, #89, .T. ) ;
#80 = ADVANCED_FACE ( 'NONE', ( #60 ), #58, .T. ) ;
#81 = ORIENTED_EDGE ( 'NONE', *, *, #84, .F. ) ;
#82 = ORIENTED_EDGE ( 'NONE', *, *, #79, .F. ) ;
#83 = ORIENTED_EDGE ( 'NONE', *, *, #77, .T. ) ;
#84 = EDGE_CURVE ( 'NONE', #111, #57, #26, .T. ) ;
#85 = ADVANCED_FACE ( 'NONE', ( #97 ), #115, .T. ) ;
#86 = ORIENTED_EDGE ( 'NONE', *, *, #77, .F. ) ;
#87 = ORIENTED_EDGE ( 'NONE', *, *, #78, .T. ) ;
#88 = EDGE_LOOP ( 'NONE', ( #81, #82, #105, #83 ) ) ;
#89 = CIRCLE ( 'NONE', #20, 4.000000000000000000 ) ;
#90 = PERSON ( 'UNSPECIFIED', 'UNSPECIFIED', 'UNSPECIFIED', ('UNSPECIFIED'), ('UNSPECIFIED'), ('UNSPECIFIED') ) ;
#91 = PRODUCT ( 'PH180000-330', 'PH180000-330', '', ( #92 ) ) ;
#92 = MECHANICAL_CONTEXT ( 'NONE', #128, 'mechanical' ) ;
#93 = APPLICATION_PROTOCOL_DEFINITION ( 'international standard', 'config_control_design', 1994, #128 ) ;
#94 = VECTOR ( 'NONE', #23, 1000.000000000000000 ) ;
#95 = CARTESIAN_POINT ( 'NONE',  ( -4.000000000000000000, 0.0000000000000000000, 165.0000000000000000 ) ) ;
#96 = DIRECTION ( 'NONE',  ( -0.0000000000000000000, -0.0000000000000000000, -1.000000000000000000 ) ) ;
#97 = FACE_OUTER_BOUND ( 'NONE', #106, .T. ) ;
#98 = VERTEX_POINT ( 'NONE', #27 ) ;
#99 = EDGE_CURVE ( 'NONE', #111, #100, #48, .T. ) ;
#100 = VERTEX_POINT ( 'NONE', #75 ) ;
#101 = ADVANCED_FACE ( 'NONE', ( #49 ), #69, .T. ) ;
#102 = ADVANCED_FACE ( 'NONE', ( #125 ), #54, .F. ) ;
#103 = ORIENTED_EDGE ( 'NONE', *, *, #99, .T. ) ;
#104 = ORIENTED_EDGE ( 'NONE', *, *, #76, .F. ) ;
#105 = ORIENTED_EDGE ( 'NONE', *, *, #76, .T. ) ;
#106 = EDGE_LOOP ( 'NONE', ( #110, #103 ) ) ;
#107 = AXIS2_PLACEMENT_3D ( 'NONE', #56, #18, #17 ) ;
#108 = CLOSED_SHELL ( 'NONE', ( #101, #80, #85, #102 ) ) ;
#109 = ORIENTED_EDGE ( 'NONE', *, *, #84, .T. ) ;
#110 = ORIENTED_EDGE ( 'NONE', *, *, #79, .T. ) ;
#111 = VERTEX_POINT ( 'NONE', #14 ) ;
#112 = EDGE_LOOP ( 'NONE', ( #55, #109, #87, #104 ) ) ;
#113 = DIRECTION ( 'NONE',  ( 1.000000000000000000, 0.0000000000000000000, 0.0000000000000000000 ) ) ;
#114 = DIRECTION ( 'NONE',  ( 0.0000000000000000000, 0.0000000000000000000, 1.000000000000000000 ) ) ;
#115 = PLANE ( 'NONE',  #74 ) ;
#116 = AXIS2_PLACEMENT_3D ( 'NONE', #21, #96, #117 ) ;
#117 = DIRECTION ( 'NONE',  ( -1.000000000000000000, 0.0000000000000000000, 0.0000000000000000000 ) ) ;
#118 = DIRECTION ( 'NONE',  ( 1.000000000000000000, 0.0000000000000000000, 0.0000000000000000000 ) ) ;
#119 = DIRECTION ( 'NONE',  ( 0.0000000000000000000, 0.0000000000000000000, 1.000000000000000000 ) ) ;
#120 = CIRCLE ( 'NONE', #107, 4.000000000000000000 ) ;
#121 = DIRECTION ( 'NONE',  ( -1.000000000000000000, 0.0000000000000000000, 0.0000000000000000000 ) ) ;
#122 = AXIS2_PLACEMENT_3D ( 'NONE', #13, #12, #11 ) ;
#123 = DIRECTION ( 'NONE',  ( -0.0000000000000000000, -0.0000000000000000000, -1.000000000000000000 ) ) ;
#124 = CARTESIAN_POINT ( 'NONE',  ( 0.0000000000000000000, 0.0000000000000000000, 165.0000000000000000 ) ) ;
#125 = FACE_OUTER_BOUND ( 'NONE', #45, .T. ) ;
#126 = DIRECTION ( 'NONE',  ( 1.000000000000000000, 0.0000000000000000000, 0.0000000000000000000 ) ) ;
#127 = AXIS2_PLACEMENT_3D ( 'NONE', #70, #119, #118 ) ;
#128 = APPLICATION_CONTEXT ( 'configuration controlled 3d designs of mechanical parts and assemblies' ) ;
#129 = ADVANCED_BREP_SHAPE_REPRESENTATION ( 'PH180000-330', ( #16, #127 ), #7 ) ;
#130 = CARTESIAN_POINT ( 'NONE',  ( 4.000000000000000000, 4.898587196589412800E-016, -165.0000000000000000 ) ) ;
#131 = LINE ( 'NONE', #95, #94 ) ;
#132 = PERSON_AND_ORGANIZATION_ROLE ( 'design_supplier' ) ;
#133 = CC_DESIGN_PERSON_AND_ORGANIZATION_ASSIGNMENT ( #165, #174, ( #139 ) ) ;
#134 = DATE_AND_TIME ( #135, #141 ) ;
#135 = CALENDAR_DATE ( 2012, 5, 9 ) ;
#136 = PERSON_AND_ORGANIZATION ( #90, #68 ) ;
#137 = PERSON_AND_ORGANIZATION ( #90, #68 ) ;
#138 = SECURITY_CLASSIFICATION_LEVEL ( 'unclassified' ) ;
#139 = PRODUCT_DEFINITION_FORMATION_WITH_SPECIFIED_SOURCE ( 'ANY', '', #91, .NOT_KNOWN. ) ;
#140 = APPROVAL_DATE_TIME ( #134, #154 ) ;
#141 = LOCAL_TIME ( 17, 26, 51.00000000000000000, #166 ) ;
#142 = APPROVAL_ROLE ( '' ) ;
#143 = PERSON_AND_ORGANIZATION ( #90, #68 ) ;
#144 = CC_DESIGN_DATE_AND_TIME_ASSIGNMENT ( #149, #145, ( #147 ) ) ;
#145 = DATE_TIME_ROLE ( 'classification_date' ) ;
#146 = CALENDAR_DATE ( 2012, 5, 9 ) ;
#147 = SECURITY_CLASSIFICATION ( '', '', #138 ) ;
#148 = CC_DESIGN_PERSON_AND_ORGANIZATION_ASSIGNMENT ( #136, #132, ( #139 ) ) ;
#149 = DATE_AND_TIME ( #146, #160 ) ;
#150 = CC_DESIGN_PERSON_AND_ORGANIZATION_ASSIGNMENT ( #152, #151, ( #147 ) ) ;
#151 = PERSON_AND_ORGANIZATION_ROLE ( 'classification_officer' ) ;
#152 = PERSON_AND_ORGANIZATION ( #90, #68 ) ;
#153 = CC_DESIGN_APPROVAL ( #154, ( #139 ) ) ;
#154 = APPROVAL ( #162, 'UNSPECIFIED' ) ;
#155 = DATE_AND_TIME ( #156, #157 ) ;
#156 = CALENDAR_DATE ( 2012, 5, 9 ) ;
#157 = LOCAL_TIME ( 17, 26, 51.00000000000000000, #158 ) ;
#158 = COORDINATED_UNIVERSAL_TIME_OFFSET ( 1, 0, .AHEAD. ) ;
#159 = APPROVAL_PERSON_ORGANIZATION ( #143, #170, #169 ) ;
#160 = LOCAL_TIME ( 17, 26, 51.00000000000000000, #161 ) ;
#161 = COORDINATED_UNIVERSAL_TIME_OFFSET ( 1, 0, .AHEAD. ) ;
#162 = APPROVAL_STATUS ( 'not_yet_approved' ) ;
#163 = SHAPE_DEFINITION_REPRESENTATION ( #164, #129 ) ;
#164 = PRODUCT_DEFINITION_SHAPE ( 'NONE', 'NONE',  #61 ) ;
#165 = PERSON_AND_ORGANIZATION ( #90, #68 ) ;
#166 = COORDINATED_UNIVERSAL_TIME_OFFSET ( 1, 0, .AHEAD. ) ;
#167 = CC_DESIGN_APPROVAL ( #170, ( #147 ) ) ;
#168 = APPROVAL_DATE_TIME ( #155, #170 ) ;
#169 = APPROVAL_ROLE ( '' ) ;
#170 = APPROVAL ( #171, 'UNSPECIFIED' ) ;
#171 = APPROVAL_STATUS ( 'not_yet_approved' ) ;
#172 = PRODUCT_RELATED_PRODUCT_CATEGORY ( 'detail', '', ( #91 ) ) ;
#173 = CC_DESIGN_SECURITY_CLASSIFICATION ( #147, ( #139 ) ) ;
#174 = PERSON_AND_ORGANIZATION_ROLE ( 'creator' ) ;
#175 = APPROVAL_PERSON_ORGANIZATION ( #137, #154, #142 ) ;
ENDSEC;
END-ISO-10303-21;
