ISO-10303-21;
HEADER;
FILE_DESCRIPTION (( 'STEP AP203' ),
    '1' );
FILE_NAME ('VT043209.stp',
    '2012-09-05T18:03:45',
    ( 'Jordi' ),
    ( '' ),
    'SwSTEP 2.0',
    'SolidWorks 2011',
    '' );
FILE_SCHEMA (( 'CONFIG_CONTROL_DESIGN' ));
ENDSEC;

DATA;
#1 = CC_DESIGN_DATE_AND_TIME_ASSIGNMENT ( #155, #156, ( #196 ) ) ;
#2 = APPROVAL ( #158, 'UNSPECIFIED' ) ;
#3 = CC_DESIGN_PERSON_AND_ORGANIZATION_ASSIGNMENT ( #164, #165, ( #238 ) ) ;
#4 = CC_DESIGN_PERSON_AND_ORGANIZATION_ASSIGNMENT ( #166, #167, ( #238 ) ) ;
#5 = CC_DESIGN_PERSON_AND_ORGANIZATION_ASSIGNMENT ( #169, #170, ( #240 ) ) ;
#6 = CC_DESIGN_DATE_AND_TIME_ASSIGNMENT ( #173, #174, ( #240 ) ) ;
#7 = APPROVAL ( #176, 'UNSPECIFIED' ) ;
#8 = PRODUCT_RELATED_PRODUCT_CATEGORY ( 'detail', '', ( #182 ) ) ;
#9 = MANIFOLD_SOLID_BREP ( 'Extruir1', #202 ) ;
#10 = PRODUCT_DEFINITION_SHAPE ( 'NONE', 'NONE',  #196 ) ;
#11 = DESIGN_CONTEXT ( 'detailed design', #46, 'design' ) ;
#12 = UNCERTAINTY_MEASURE_WITH_UNIT (LENGTH_MEASURE( 1.000000000000000100E-005 ), #132, 'distance_accuracy_value', 'NONE');
#13 = ORIENTED_EDGE ( 'NONE', *, *, #189, .T. ) ;
#14 = EDGE_LOOP ( 'NONE', ( #37, #28, #13, #24 ) ) ;
#15 = EDGE_LOOP ( 'NONE', ( #22, #17, #18, #44 ) ) ;
#16 = VERTEX_POINT ( 'NONE', #50 ) ;
#17 = ORIENTED_EDGE ( 'NONE', *, *, #188, .T. ) ;
#18 = ORIENTED_EDGE ( 'NONE', *, *, #247, .T. ) ;
#19 = ORIENTED_EDGE ( 'NONE', *, *, #186, .T. ) ;
#20 = ORIENTED_EDGE ( 'NONE', *, *, #248, .T. ) ;
#21 = ORIENTED_EDGE ( 'NONE', *, *, #246, .F. ) ;
#22 = ORIENTED_EDGE ( 'NONE', *, *, #244, .F. ) ;
#23 = ORIENTED_EDGE ( 'NONE', *, *, #190, .F. ) ;
#24 = ORIENTED_EDGE ( 'NONE', *, *, #191, .F. ) ;
#25 = ORIENTED_EDGE ( 'NONE', *, *, #189, .F. ) ;
#26 = ORIENTED_EDGE ( 'NONE', *, *, #188, .F. ) ;
#27 = ORIENTED_EDGE ( 'NONE', *, *, #243, .F. ) ;
#28 = ORIENTED_EDGE ( 'NONE', *, *, #249, .T. ) ;
#29 = ORIENTED_EDGE ( 'NONE', *, *, #244, .T. ) ;
#30 = ORIENTED_EDGE ( 'NONE', *, *, #186, .F. ) ;
#31 = ORIENTED_EDGE ( 'NONE', *, *, #193, .F. ) ;
#32 = EDGE_LOOP ( 'NONE', ( #23, #21 ) ) ;
#33 = ORIENTED_EDGE ( 'NONE', *, *, #247, .F. ) ;
#34 = ORIENTED_EDGE ( 'NONE', *, *, #246, .T. ) ;
#35 = ORIENTED_EDGE ( 'NONE', *, *, #193, .T. ) ;
#36 = ORIENTED_EDGE ( 'NONE', *, *, #243, .T. ) ;
#37 = ORIENTED_EDGE ( 'NONE', *, *, #248, .F. ) ;
#38 = EDGE_LOOP ( 'NONE', ( #31, #25 ) ) ;
#39 = EDGE_LOOP ( 'NONE', ( #19, #20 ) ) ;
#40 = ORIENTED_EDGE ( 'NONE', *, *, #191, .T. ) ;
#41 = EDGE_LOOP ( 'NONE', ( #27, #26 ) ) ;
#42 = EDGE_LOOP ( 'NONE', ( #36, #29, #34, #33 ) ) ;
#43 = EDGE_LOOP ( 'NONE', ( #45, #30, #40, #35 ) ) ;
#44 = ORIENTED_EDGE ( 'NONE', *, *, #190, .T. ) ;
#45 = ORIENTED_EDGE ( 'NONE', *, *, #249, .F. ) ;
#46 = APPLICATION_CONTEXT ( 'configuration controlled 3d designs of mechanical parts and assemblies' ) ;
#47 = APPLICATION_CONTEXT ( 'configuration controlled 3d designs of mechanical parts and assemblies' ) ;
#48 = APPROVAL ( #145, 'UNSPECIFIED' ) ;
#49 = VERTEX_POINT ( 'NONE', #55 ) ;
#50 = CARTESIAN_POINT ( 'NONE',  ( 0.0000000000000000000, 0.0000000000000000000, -2.000000000000000000 ) ) ;
#51 = VERTEX_POINT ( 'NONE', #73 ) ;
#52 = CYLINDRICAL_SURFACE ( 'NONE', #199, 1.500000000000000200 ) ;
#53 = CARTESIAN_POINT ( 'NONE',  ( 2.449293598294706400E-016, 209.0000000000000000, 2.000000000000000000 ) ) ;
#54 = VERTEX_POINT ( 'NONE', #67 ) ;
#55 = CARTESIAN_POINT ( 'NONE',  ( 0.0000000000000000000, 209.0000000000000000, -1.500000000000000200 ) ) ;
#56 = CARTESIAN_POINT ( 'NONE',  ( 0.0000000000000000000, 0.0000000000000000000, -1.500000000000000200 ) ) ;
#57 = CARTESIAN_POINT ( 'NONE',  ( 1.836970198721030200E-016, 209.0000000000000000, 1.500000000000000200 ) ) ;
#58 = CARTESIAN_POINT ( 'NONE',  ( 0.0000000000000000000, 209.0000000000000000, 0.0000000000000000000 ) ) ;
#59 = DIRECTION ( 'NONE',  ( 0.0000000000000000000, -0.0000000000000000000, 1.000000000000000000 ) ) ;
#60 = DIRECTION ( 'NONE',  ( 0.0000000000000000000, 1.000000000000000000, 0.0000000000000000000 ) ) ;
#61 = CARTESIAN_POINT ( 'NONE',  ( 0.0000000000000000000, 0.0000000000000000000, 0.0000000000000000000 ) ) ;
#62 = CARTESIAN_POINT ( 'NONE',  ( 2.449293598294706400E-016, 0.0000000000000000000, 2.000000000000000000 ) ) ;
#63 = VERTEX_POINT ( 'NONE', #62 ) ;
#64 = VERTEX_POINT ( 'NONE', #66 ) ;
#65 = VERTEX_POINT ( 'NONE', #57 ) ;
#66 = CARTESIAN_POINT ( 'NONE',  ( 1.836970198721030200E-016, 0.0000000000000000000, 1.500000000000000200 ) ) ;
#67 = CARTESIAN_POINT ( 'NONE',  ( 0.0000000000000000000, 209.0000000000000000, -2.000000000000000000 ) ) ;
#68 = VERTEX_POINT ( 'NONE', #56 ) ;
#69 = CARTESIAN_POINT ( 'NONE',  ( 0.0000000000000000000, 0.0000000000000000000, 0.0000000000000000000 ) ) ;
#70 = CARTESIAN_POINT ( 'NONE',  ( 0.0000000000000000000, 0.0000000000000000000, 0.0000000000000000000 ) ) ;
#71 = DIRECTION ( 'NONE',  ( -0.0000000000000000000, -1.000000000000000000, -0.0000000000000000000 ) ) ;
#72 = DIRECTION ( 'NONE',  ( 0.0000000000000000000, 0.0000000000000000000, -1.000000000000000000 ) ) ;
#73 = CARTESIAN_POINT ( 'NONE',  ( 2.449293598294706400E-016, 209.0000000000000000, 2.000000000000000000 ) ) ;
#74 = DIRECTION ( 'NONE',  ( -0.0000000000000000000, -1.000000000000000000, -0.0000000000000000000 ) ) ;
#75 = DIRECTION ( 'NONE',  ( 0.0000000000000000000, 0.0000000000000000000, -1.000000000000000000 ) ) ;
#76 = CARTESIAN_POINT ( 'NONE',  ( 0.0000000000000000000, 209.0000000000000000, 0.0000000000000000000 ) ) ;
#77 = DIRECTION ( 'NONE',  ( -0.0000000000000000000, -1.000000000000000000, -0.0000000000000000000 ) ) ;
#78 = DIRECTION ( 'NONE',  ( 0.0000000000000000000, 0.0000000000000000000, -1.000000000000000000 ) ) ;
#79 = CARTESIAN_POINT ( 'NONE',  ( 0.0000000000000000000, 209.0000000000000000, -1.500000000000000200 ) ) ;
#80 = LINE ( 'NONE', #79, #206 ) ;
#81 = CARTESIAN_POINT ( 'NONE',  ( 0.0000000000000000000, 209.0000000000000000, 0.0000000000000000000 ) ) ;
#82 = DIRECTION ( 'NONE',  ( -0.0000000000000000000, -1.000000000000000000, -0.0000000000000000000 ) ) ;
#83 = DIRECTION ( 'NONE',  ( 0.0000000000000000000, 0.0000000000000000000, -1.000000000000000000 ) ) ;
#84 = CARTESIAN_POINT ( 'NONE',  ( 0.0000000000000000000, 0.0000000000000000000, 0.0000000000000000000 ) ) ;
#85 = DIRECTION ( 'NONE',  ( -0.0000000000000000000, -1.000000000000000000, -0.0000000000000000000 ) ) ;
#86 = DIRECTION ( 'NONE',  ( 0.0000000000000000000, 0.0000000000000000000, -1.000000000000000000 ) ) ;
#87 = FACE_OUTER_BOUND ( 'NONE', #15, .T. ) ;
#88 = DIRECTION ( 'NONE',  ( -0.0000000000000000000, -1.000000000000000000, -0.0000000000000000000 ) ) ;
#89 = DIRECTION ( 'NONE',  ( 0.0000000000000000000, -0.0000000000000000000, 1.000000000000000000 ) ) ;
#90 = DIRECTION ( 'NONE',  ( -0.0000000000000000000, -1.000000000000000000, -0.0000000000000000000 ) ) ;
#91 = CYLINDRICAL_SURFACE ( 'NONE', #215, 2.000000000000000000 ) ;
#92 = DIRECTION ( 'NONE',  ( 0.0000000000000000000, 1.000000000000000000, 0.0000000000000000000 ) ) ;
#93 = DIRECTION ( 'NONE',  ( 0.0000000000000000000, 0.0000000000000000000, -1.000000000000000000 ) ) ;
#94 = FACE_BOUND ( 'NONE', #38, .T. ) ;
#95 = FACE_OUTER_BOUND ( 'NONE', #32, .T. ) ;
#96 = PLANE ( 'NONE',  #213 ) ;
#97 = DIRECTION ( 'NONE',  ( 0.0000000000000000000, 1.000000000000000000, 0.0000000000000000000 ) ) ;
#98 = DIRECTION ( 'NONE',  ( -0.0000000000000000000, -1.000000000000000000, -0.0000000000000000000 ) ) ;
#99 = CARTESIAN_POINT ( 'NONE',  ( 0.0000000000000000000, 209.0000000000000000, 0.0000000000000000000 ) ) ;
#100 = DIRECTION ( 'NONE',  ( 0.0000000000000000000, 0.0000000000000000000, -1.000000000000000000 ) ) ;
#101 = FACE_BOUND ( 'NONE', #39, .T. ) ;
#102 = FACE_OUTER_BOUND ( 'NONE', #41, .T. ) ;
#103 = FACE_OUTER_BOUND ( 'NONE', #43, .T. ) ;
#104 = PLANE ( 'NONE',  #223 ) ;
#105 = DIRECTION ( 'NONE',  ( 0.0000000000000000000, 0.0000000000000000000, -1.000000000000000000 ) ) ;
#106 = FACE_OUTER_BOUND ( 'NONE', #14, .T. ) ;
#107 = CARTESIAN_POINT ( 'NONE',  ( 0.0000000000000000000, 209.0000000000000000, 0.0000000000000000000 ) ) ;
#108 = CARTESIAN_POINT ( 'NONE',  ( 0.0000000000000000000, 209.0000000000000000, 0.0000000000000000000 ) ) ;
#109 = CYLINDRICAL_SURFACE ( 'NONE', #224, 1.500000000000000200 ) ;
#110 = FACE_OUTER_BOUND ( 'NONE', #42, .T. ) ;
#111 = LINE ( 'NONE', #53, #211 ) ;
#112 = CARTESIAN_POINT ( 'NONE',  ( 0.0000000000000000000, 209.0000000000000000, 0.0000000000000000000 ) ) ;
#113 = DIRECTION ( 'NONE',  ( -0.0000000000000000000, -1.000000000000000000, -0.0000000000000000000 ) ) ;
#114 = DIRECTION ( 'NONE',  ( 0.0000000000000000000, 0.0000000000000000000, -1.000000000000000000 ) ) ;
#115 = DIRECTION ( 'NONE',  ( -0.0000000000000000000, -1.000000000000000000, -0.0000000000000000000 ) ) ;
#116 = CYLINDRICAL_SURFACE ( 'NONE', #220, 2.000000000000000000 ) ;
#117 = CARTESIAN_POINT ( 'NONE',  ( 0.0000000000000000000, 209.0000000000000000, 0.0000000000000000000 ) ) ;
#118 = DIRECTION ( 'NONE',  ( -0.0000000000000000000, -1.000000000000000000, -0.0000000000000000000 ) ) ;
#119 = DIRECTION ( 'NONE',  ( 0.0000000000000000000, 0.0000000000000000000, -1.000000000000000000 ) ) ;
#120 = CARTESIAN_POINT ( 'NONE',  ( 0.0000000000000000000, 209.0000000000000000, -2.000000000000000000 ) ) ;
#121 = LINE ( 'NONE', #120, #222 ) ;
#122 = LINE ( 'NONE', #123, #218 ) ;
#123 = CARTESIAN_POINT ( 'NONE',  ( 1.836970198721030200E-016, 209.0000000000000000, 1.500000000000000200 ) ) ;
#124 = CARTESIAN_POINT ( 'NONE',  ( 0.0000000000000000000, 0.0000000000000000000, 0.0000000000000000000 ) ) ;
#125 = DIRECTION ( 'NONE',  ( 0.0000000000000000000, 1.000000000000000000, 0.0000000000000000000 ) ) ;
#126 = DIRECTION ( 'NONE',  ( 0.0000000000000000000, 0.0000000000000000000, -1.000000000000000000 ) ) ;
#127 = DIRECTION ( 'NONE',  ( -0.0000000000000000000, -1.000000000000000000, -0.0000000000000000000 ) ) ;
#128 = CARTESIAN_POINT ( 'NONE',  ( 0.0000000000000000000, 209.0000000000000000, 0.0000000000000000000 ) ) ;
#129 = DIRECTION ( 'NONE',  ( -0.0000000000000000000, -1.000000000000000000, -0.0000000000000000000 ) ) ;
#130 = DIRECTION ( 'NONE',  ( 0.0000000000000000000, 0.0000000000000000000, -1.000000000000000000 ) ) ;
#131 = DIRECTION ( 'NONE',  ( -0.0000000000000000000, -1.000000000000000000, -0.0000000000000000000 ) ) ;
#132 =( LENGTH_UNIT ( ) NAMED_UNIT ( * ) SI_UNIT ( .MILLI., .METRE. ) );
#133 =( NAMED_UNIT ( * ) PLANE_ANGLE_UNIT ( ) SI_UNIT ( $, .RADIAN. ) );
#134 =( NAMED_UNIT ( * ) SI_UNIT ( $, .STERADIAN. ) SOLID_ANGLE_UNIT ( ) );
#135 = MECHANICAL_CONTEXT ( 'NONE', #47, 'mechanical' ) ;
#136 = SHAPE_DEFINITION_REPRESENTATION ( #10, #184 ) ;
#137 = APPLICATION_PROTOCOL_DEFINITION ( 'international standard', 'config_control_design', 1994, #47 ) ;
#138 = CARTESIAN_POINT ( 'NONE',  ( 0.0000000000000000000, 0.0000000000000000000, 0.0000000000000000000 ) ) ;
#139 = DIRECTION ( 'NONE',  ( 0.0000000000000000000, 0.0000000000000000000, 1.000000000000000000 ) ) ;
#140 = DIRECTION ( 'NONE',  ( 1.000000000000000000, 0.0000000000000000000, 0.0000000000000000000 ) ) ;
#141 = PERSON_AND_ORGANIZATION ( #183, #227 ) ;
#142 = PERSON_AND_ORGANIZATION_ROLE ( 'design_owner' ) ;
#143 = APPLICATION_PROTOCOL_DEFINITION ( 'international standard', 'config_control_design', 1994, #46 ) ;
#144 = PERSON_AND_ORGANIZATION ( #183, #227 ) ;
#145 = APPROVAL_STATUS ( 'not_yet_approved' ) ;
#146 = APPROVAL_ROLE ( '' ) ;
#147 = COORDINATED_UNIVERSAL_TIME_OFFSET ( 5, 0, .BEHIND. ) ;
#148 = CALENDAR_DATE ( 2012, 5, 9 ) ;
#149 = DATE_AND_TIME ( #148, #228 ) ;
#150 = APPROVAL_DATE_TIME ( #149, #48 ) ;
#151 = PERSON_AND_ORGANIZATION ( #183, #227 ) ;
#152 = PERSON_AND_ORGANIZATION_ROLE ( 'creator' ) ;
#153 = COORDINATED_UNIVERSAL_TIME_OFFSET ( 5, 0, .BEHIND. ) ;
#154 = CALENDAR_DATE ( 2012, 5, 9 ) ;
#155 = DATE_AND_TIME ( #154, #233 ) ;
#156 = DATE_TIME_ROLE ( 'creation_date' ) ;
#157 = PERSON_AND_ORGANIZATION ( #183, #227 ) ;
#158 = APPROVAL_STATUS ( 'not_yet_approved' ) ;
#159 = APPROVAL_ROLE ( '' ) ;
#160 = COORDINATED_UNIVERSAL_TIME_OFFSET ( 5, 0, .BEHIND. ) ;
#161 = CALENDAR_DATE ( 2012, 5, 9 ) ;
#162 = DATE_AND_TIME ( #161, #231 ) ;
#163 = APPROVAL_DATE_TIME ( #162, #2 ) ;
#164 = PERSON_AND_ORGANIZATION ( #183, #227 ) ;
#165 = PERSON_AND_ORGANIZATION_ROLE ( 'creator' ) ;
#166 = PERSON_AND_ORGANIZATION ( #183, #227 ) ;
#167 = PERSON_AND_ORGANIZATION_ROLE ( 'design_supplier' ) ;
#168 = SECURITY_CLASSIFICATION_LEVEL ( 'unclassified' ) ;
#169 = PERSON_AND_ORGANIZATION ( #183, #227 ) ;
#170 = PERSON_AND_ORGANIZATION_ROLE ( 'classification_officer' ) ;
#171 = COORDINATED_UNIVERSAL_TIME_OFFSET ( 5, 0, .BEHIND. ) ;
#172 = CALENDAR_DATE ( 2012, 5, 9 ) ;
#173 = DATE_AND_TIME ( #172, #235 ) ;
#174 = DATE_TIME_ROLE ( 'classification_date' ) ;
#175 = PERSON_AND_ORGANIZATION ( #183, #227 ) ;
#176 = APPROVAL_STATUS ( 'not_yet_approved' ) ;
#177 = APPROVAL_ROLE ( '' ) ;
#178 = COORDINATED_UNIVERSAL_TIME_OFFSET ( 5, 0, .BEHIND. ) ;
#179 = CALENDAR_DATE ( 2012, 5, 9 ) ;
#180 = DATE_AND_TIME ( #179, #236 ) ;
#181 = APPROVAL_DATE_TIME ( #180, #7 ) ;
#182 = PRODUCT ( 'VT043209', 'VT043209', '', ( #135 ) ) ;
#183 = PERSON ( 'UNSPECIFIED', 'UNSPECIFIED', 'UNSPECIFIED', ('UNSPECIFIED'), ('UNSPECIFIED'), ('UNSPECIFIED') ) ;
#184 = ADVANCED_BREP_SHAPE_REPRESENTATION ( 'VT043209', ( #9, #217 ), #241 ) ;
#185 = ADVANCED_FACE ( 'NONE', ( #103 ), #52, .F. ) ;
#186 = EDGE_CURVE ( 'NONE', #49, #65, #200, .T. ) ;
#187 = CC_DESIGN_PERSON_AND_ORGANIZATION_ASSIGNMENT ( #151, #152, ( #196 ) ) ;
#188 = EDGE_CURVE ( 'NONE', #51, #54, #203, .T. ) ;
#189 = EDGE_CURVE ( 'NONE', #64, #68, #201, .T. ) ;
#190 = EDGE_CURVE ( 'NONE', #16, #63, #198, .T. ) ;
#191 = EDGE_CURVE ( 'NONE', #49, #68, #80, .T. ) ;
#192 = ADVANCED_FACE ( 'NONE', ( #94, #95 ), #96, .F. ) ;
#193 = EDGE_CURVE ( 'NONE', #68, #64, #205, .T. ) ;
#194 = ADVANCED_FACE ( 'NONE', ( #87 ), #91, .T. ) ;
#195 = ADVANCED_FACE ( 'NONE', ( #106 ), #109, .F. ) ;
#196 = PRODUCT_DEFINITION ( 'UNKNOWN', '', #238, #11 ) ;
#197 = CC_DESIGN_PERSON_AND_ORGANIZATION_ASSIGNMENT ( #141, #142, ( #182 ) ) ;
#198 = CIRCLE ( 'NONE', #209, 2.000000000000000000 ) ;
#199 = AXIS2_PLACEMENT_3D ( 'NONE', #58, #74, #75 ) ;
#200 = CIRCLE ( 'NONE', #204, 1.500000000000000200 ) ;
#201 = CIRCLE ( 'NONE', #207, 1.500000000000000200 ) ;
#202 = CLOSED_SHELL ( 'NONE', ( #245, #195, #185, #242, #192, #194 ) ) ;
#203 = CIRCLE ( 'NONE', #225, 2.000000000000000000 ) ;
#204 = AXIS2_PLACEMENT_3D ( 'NONE', #81, #82, #83 ) ;
#205 = CIRCLE ( 'NONE', #208, 1.500000000000000200 ) ;
#206 = VECTOR ( 'NONE', #98, 1000.000000000000000 ) ;
#207 = AXIS2_PLACEMENT_3D ( 'NONE', #69, #71, #72 ) ;
#208 = AXIS2_PLACEMENT_3D ( 'NONE', #84, #85, #86 ) ;
#209 = AXIS2_PLACEMENT_3D ( 'NONE', #61, #92, #93 ) ;
#210 = AXIS2_PLACEMENT_3D ( 'NONE', #124, #125, #126 ) ;
#211 = VECTOR ( 'NONE', #115, 1000.000000000000000 ) ;
#212 = AXIS2_PLACEMENT_3D ( 'NONE', #112, #113, #114 ) ;
#213 = AXIS2_PLACEMENT_3D ( 'NONE', #70, #97, #89 ) ;
#214 = CIRCLE ( 'NONE', #212, 2.000000000000000000 ) ;
#215 = AXIS2_PLACEMENT_3D ( 'NONE', #99, #90, #100 ) ;
#216 = AXIS2_PLACEMENT_3D ( 'NONE', #128, #129, #130 ) ;
#217 = AXIS2_PLACEMENT_3D ( 'NONE', #138, #139, #140 ) ;
#218 = VECTOR ( 'NONE', #131, 1000.000000000000000 ) ;
#219 = CIRCLE ( 'NONE', #216, 1.500000000000000200 ) ;
#220 = AXIS2_PLACEMENT_3D ( 'NONE', #117, #118, #119 ) ;
#221 = CIRCLE ( 'NONE', #210, 2.000000000000000000 ) ;
#222 = VECTOR ( 'NONE', #127, 1000.000000000000000 ) ;
#223 = AXIS2_PLACEMENT_3D ( 'NONE', #107, #60, #59 ) ;
#224 = AXIS2_PLACEMENT_3D ( 'NONE', #108, #88, #105 ) ;
#225 = AXIS2_PLACEMENT_3D ( 'NONE', #76, #77, #78 ) ;
#226 = APPROVAL_PERSON_ORGANIZATION ( #144, #48, #146 ) ;
#227 = ORGANIZATION ( 'UNSPECIFIED', 'UNSPECIFIED', '' ) ;
#228 = LOCAL_TIME ( 14, 3, 45.00000000000000000, #147 ) ;
#229 = CC_DESIGN_SECURITY_CLASSIFICATION ( #240, ( #238 ) ) ;
#230 = CC_DESIGN_APPROVAL ( #48, ( #196 ) ) ;
#231 = LOCAL_TIME ( 14, 3, 45.00000000000000000, #160 ) ;
#232 = CC_DESIGN_APPROVAL ( #7, ( #240 ) ) ;
#233 = LOCAL_TIME ( 14, 3, 45.00000000000000000, #153 ) ;
#234 = APPROVAL_PERSON_ORGANIZATION ( #157, #2, #159 ) ;
#235 = LOCAL_TIME ( 14, 3, 45.00000000000000000, #171 ) ;
#236 = LOCAL_TIME ( 14, 3, 45.00000000000000000, #178 ) ;
#237 = CC_DESIGN_APPROVAL ( #2, ( #238 ) ) ;
#238 = PRODUCT_DEFINITION_FORMATION_WITH_SPECIFIED_SOURCE ( 'ANY', '', #182, .NOT_KNOWN. ) ;
#239 = APPROVAL_PERSON_ORGANIZATION ( #175, #7, #177 ) ;
#240 = SECURITY_CLASSIFICATION ( '', '', #168 ) ;
#241 =( GEOMETRIC_REPRESENTATION_CONTEXT ( 3 ) GLOBAL_UNCERTAINTY_ASSIGNED_CONTEXT ( ( #12 ) ) GLOBAL_UNIT_ASSIGNED_CONTEXT ( ( #132, #133, #134 ) ) REPRESENTATION_CONTEXT ( 'NONE', 'WORKASPACE' ) );
#242 = ADVANCED_FACE ( 'NONE', ( #101, #102 ), #104, .T. ) ;
#243 = EDGE_CURVE ( 'NONE', #54, #51, #214, .T. ) ;
#244 = EDGE_CURVE ( 'NONE', #51, #63, #111, .T. ) ;
#245 = ADVANCED_FACE ( 'NONE', ( #110 ), #116, .T. ) ;
#246 = EDGE_CURVE ( 'NONE', #63, #16, #221, .T. ) ;
#247 = EDGE_CURVE ( 'NONE', #54, #16, #121, .T. ) ;
#248 = EDGE_CURVE ( 'NONE', #65, #49, #219, .T. ) ;
#249 = EDGE_CURVE ( 'NONE', #65, #64, #122, .T. ) ;
ENDSEC;
END-ISO-10303-21;
