ISO-10303-21;
HEADER;
FILE_DESCRIPTION(('STEP AP214'),'1');
FILE_NAME('CS51011_10-80-6.stp','2019-09-16T07:31:00',(' '),(' '),'Spatial InterOp 3D',' ',' ');
FILE_SCHEMA(('AUTOMOTIVE_DESIGN { 1 0 10303 214 1 1 1 1 }'));
ENDSEC;
DATA;
#1=MECHANICAL_DESIGN_GEOMETRIC_PRESENTATION_REPRESENTATION(' ',(#16,#17,#18,#19,#20,#21,#22,#23,#24,#25,#26,#27,#28,#29,#30,#31,#32),#6);
#2=PRODUCT_DEFINITION_CONTEXT('',#33,'design');
#3=APPLICATION_PROTOCOL_DEFINITION('INTERNATIONAL STANDARD','automotive_design',1994,#33);
#4=PRODUCT_CATEGORY_RELATIONSHIP('NONE','NONE',#34,#35);
#5=SHAPE_DEFINITION_REPRESENTATION(#36,#37);
#6= (GEOMETRIC_REPRESENTATION_CONTEXT(3)GLOBAL_UNCERTAINTY_ASSIGNED_CONTEXT((#40))GLOBAL_UNIT_ASSIGNED_CONTEXT((#42,#43,#44))REPRESENTATION_CONTEXT('NONE','WORKSPACE'));
#7=PROPERTY_DEFINITION_REPRESENTATION(#46,#47);
#8=GENERAL_PROPERTY_ASSOCIATION('','',#48,#46);
#9=PROPERTY_DEFINITION_REPRESENTATION(#49,#50);
#10=GENERAL_PROPERTY_ASSOCIATION('','',#51,#49);
#11=PROPERTY_DEFINITION_REPRESENTATION(#52,#53);
#12=GENERAL_PROPERTY_ASSOCIATION('','',#54,#52);
#16=STYLED_ITEM('',(#55),#56);
#17=STYLED_ITEM('',(#57),#58);
#18=STYLED_ITEM('',(#59),#60);
#19=STYLED_ITEM('',(#61),#62);
#20=STYLED_ITEM('',(#63),#64);
#21=STYLED_ITEM('',(#65),#66);
#22=STYLED_ITEM('',(#67),#68);
#23=STYLED_ITEM('',(#69),#70);
#24=STYLED_ITEM('',(#71),#72);
#25=STYLED_ITEM('',(#73),#74);
#26=STYLED_ITEM('',(#75),#76);
#27=STYLED_ITEM('',(#77),#78);
#28=STYLED_ITEM('',(#79),#80);
#29=STYLED_ITEM('',(#81),#82);
#30=STYLED_ITEM('',(#83),#84);
#31=STYLED_ITEM('',(#85),#86);
#32=STYLED_ITEM('',(#87),#88);
#33=APPLICATION_CONTEXT(' ');
#34=PRODUCT_CATEGORY('part','NONE');
#35=PRODUCT_RELATED_PRODUCT_CATEGORY('detail',' ',(#89));
#36=PRODUCT_DEFINITION_SHAPE('NONE','NONE',#90);
#37=ADVANCED_BREP_SHAPE_REPRESENTATION('CS51011/10-80-6',(#88,#91),#6);
#40=UNCERTAINTY_MEASURE_WITH_UNIT(LENGTH_MEASURE(0.001),#42,'','');
#42= (CONVERSION_BASED_UNIT('MILLIMETRE',#94)LENGTH_UNIT()NAMED_UNIT(#97));
#43= (NAMED_UNIT(#99)PLANE_ANGLE_UNIT()SI_UNIT($,.RADIAN.));
#44= (NAMED_UNIT(#99)SOLID_ANGLE_UNIT()SI_UNIT($,.STERADIAN.));
#46=PROPERTY_DEFINITION('PdmObjectId','',#90);
#47=REPRESENTATION('',(#105),#6);
#48=GENERAL_PROPERTY('','19_881eb239-e411-4156-a454-71cc61bf7749&2_54_0_37','');
#49=PROPERTY_DEFINITION('CreationDate','',#90);
#50=REPRESENTATION('',(#106),#6);
#51=GENERAL_PROPERTY('','12/09/2019 07:46:27','');
#52=PROPERTY_DEFINITION('Minor Revision','',#90);
#53=REPRESENTATION('',(#107),#6);
#54=GENERAL_PROPERTY('','0','');
#55=PRESENTATION_STYLE_ASSIGNMENT((#108));
#56=ADVANCED_FACE('',(#109,#110),#111,.F.);
#57=PRESENTATION_STYLE_ASSIGNMENT((#112));
#58=ADVANCED_FACE('',(#113),#114,.F.);
#59=PRESENTATION_STYLE_ASSIGNMENT((#115));
#60=ADVANCED_FACE('',(#116,#117),#118,.F.);
#61=PRESENTATION_STYLE_ASSIGNMENT((#119));
#62=ADVANCED_FACE('',(#120),#121,.F.);
#63=PRESENTATION_STYLE_ASSIGNMENT((#122));
#64=ADVANCED_FACE('',(#123,#124),#125,.F.);
#65=PRESENTATION_STYLE_ASSIGNMENT((#126));
#66=ADVANCED_FACE('',(#127,#128),#129,.T.);
#67=PRESENTATION_STYLE_ASSIGNMENT((#130));
#68=ADVANCED_FACE('',(#131,#132),#133,.F.);
#69=PRESENTATION_STYLE_ASSIGNMENT((#134));
#70=ADVANCED_FACE('',(#135,#136),#137,.T.);
#71=PRESENTATION_STYLE_ASSIGNMENT((#138));
#72=ADVANCED_FACE('',(#139,#140),#141,.T.);
#73=PRESENTATION_STYLE_ASSIGNMENT((#142));
#74=ADVANCED_FACE('',(#143,#144),#145,.F.);
#75=PRESENTATION_STYLE_ASSIGNMENT((#146));
#76=ADVANCED_FACE('',(#147),#148,.T.);
#77=PRESENTATION_STYLE_ASSIGNMENT((#149));
#78=ADVANCED_FACE('',(#150),#151,.T.);
#79=PRESENTATION_STYLE_ASSIGNMENT((#152));
#80=ADVANCED_FACE('',(#153,#154),#155,.F.);
#81=PRESENTATION_STYLE_ASSIGNMENT((#156));
#82=ADVANCED_FACE('',(#157,#158),#159,.F.);
#83=PRESENTATION_STYLE_ASSIGNMENT((#160));
#84=ADVANCED_FACE('',(#161,#162),#163,.F.);
#85=PRESENTATION_STYLE_ASSIGNMENT((#164));
#86=ADVANCED_FACE('',(#165),#166,.T.);
#87=PRESENTATION_STYLE_ASSIGNMENT((#167));
#88=MANIFOLD_SOLID_BREP('CS51011/10-80-6',#168);
#89=PRODUCT('CS51011/10-80-6','CS51011 ','PART--DESC',(#169));
#90=PRODUCT_DEFINITION('','NONE',#170,#2);
#91=AXIS2_PLACEMENT_3D('',#171,#172,#173);
#94=LENGTH_MEASURE_WITH_UNIT(LENGTH_MEASURE(1.0),#174);
#97=DIMENSIONAL_EXPONENTS(1.0,0.0,0.0,0.0,0.0,0.0,0.0);
#99=DIMENSIONAL_EXPONENTS(0.0,0.0,0.0,0.0,0.0,0.0,0.0);
#105=DESCRIPTIVE_REPRESENTATION_ITEM('','19_881eb239-e411-4156-a454-71cc61bf7749&2_54_0_37');
#106=DESCRIPTIVE_REPRESENTATION_ITEM('','12/09/2019 07:46:27');
#107=DESCRIPTIVE_REPRESENTATION_ITEM('','0');
#108=SURFACE_STYLE_USAGE(.BOTH.,#175);
#109=FACE_OUTER_BOUND('',#176,.T.);
#110=FACE_BOUND('',#177,.T.);
#111=CONICAL_SURFACE('',#178,3.0,0.523598775598299);
#112=SURFACE_STYLE_USAGE(.BOTH.,#179);
#113=FACE_OUTER_BOUND('',#180,.T.);
#114=PLANE('',#181);
#115=SURFACE_STYLE_USAGE(.BOTH.,#182);
#116=FACE_BOUND('',#183,.T.);
#117=FACE_OUTER_BOUND('',#184,.T.);
#118=CONICAL_SURFACE('',#185,4.94079809994791,1.09955742875643);
#119=SURFACE_STYLE_USAGE(.BOTH.,#186);
#120=FACE_OUTER_BOUND('',#187,.T.);
#121=PLANE('',#188);
#122=SURFACE_STYLE_USAGE(.BOTH.,#189);
#123=FACE_OUTER_BOUND('',#190,.T.);
#124=FACE_OUTER_BOUND('',#191,.T.);
#125=TOROIDAL_SURFACE('',#192,4.85,0.2);
#126=SURFACE_STYLE_USAGE(.BOTH.,#193);
#127=FACE_OUTER_BOUND('',#194,.T.);
#128=FACE_OUTER_BOUND('',#195,.T.);
#129=CYLINDRICAL_SURFACE('',#196,4.65);
#130=SURFACE_STYLE_USAGE(.BOTH.,#197);
#131=FACE_OUTER_BOUND('',#198,.T.);
#132=FACE_OUTER_BOUND('',#199,.T.);
#133=TOROIDAL_SURFACE('',#200,4.85,0.2);
#134=SURFACE_STYLE_USAGE(.BOTH.,#201);
#135=FACE_BOUND('',#202,.T.);
#136=FACE_OUTER_BOUND('',#203,.T.);
#137=CONICAL_SURFACE('',#204,5.0,0.47123889803847);
#138=SURFACE_STYLE_USAGE(.BOTH.,#205);
#139=FACE_OUTER_BOUND('',#206,.T.);
#140=FACE_OUTER_BOUND('',#207,.T.);
#141=CYLINDRICAL_SURFACE('',#208,5.0);
#142=SURFACE_STYLE_USAGE(.BOTH.,#209);
#143=FACE_OUTER_BOUND('',#210,.T.);
#144=FACE_BOUND('',#211,.T.);
#145=PLANE('',#212);
#146=SURFACE_STYLE_USAGE(.BOTH.,#213);
#147=FACE_OUTER_BOUND('',#214,.T.);
#148=CONICAL_SURFACE('',#215,8.0,0.785398163397449);
#149=SURFACE_STYLE_USAGE(.BOTH.,#216);
#150=FACE_OUTER_BOUND('',#217,.T.);
#151=CONICAL_SURFACE('',#218,7.5,0.785398163397449);
#152=SURFACE_STYLE_USAGE(.BOTH.,#219);
#153=FACE_OUTER_BOUND('',#220,.T.);
#154=FACE_OUTER_BOUND('',#221,.T.);
#155=CYLINDRICAL_SURFACE('',#222,3.0);
#156=SURFACE_STYLE_USAGE(.BOTH.,#223);
#157=FACE_OUTER_BOUND('',#224,.T.);
#158=FACE_BOUND('',#225,.T.);
#159=CONICAL_SURFACE('',#226,3.0,0.0174532925199416);
#160=SURFACE_STYLE_USAGE(.BOTH.,#227);
#161=FACE_BOUND('',#228,.T.);
#162=FACE_OUTER_BOUND('',#229,.T.);
#163=PLANE('',#230);
#164=SURFACE_STYLE_USAGE(.BOTH.,#231);
#165=FACE_OUTER_BOUND('',#232,.T.);
#166=CYLINDRICAL_SURFACE('',#233,8.0);
#167=SURFACE_STYLE_USAGE(.BOTH.,#234);
#168=CLOSED_SHELL('',(#56,#58,#60,#62,#64,#66,#68,#70,#72,#74,#76,#78,#80,#82,#84,#86));
#169=PRODUCT_CONTEXT('',#33,'mechanical');
#170=PRODUCT_DEFINITION_FORMATION_WITH_SPECIFIED_SOURCE('A','NONE',#89,.NOT_KNOWN.);
#171=CARTESIAN_POINT('',(0.0,0.0,0.0));
#172=DIRECTION('',(0.0,0.0,1.0));
#173=DIRECTION('',(1.0,0.0,0.0));
#174= (NAMED_UNIT(#97)LENGTH_UNIT()SI_UNIT(.MILLI.,.METRE.));
#175=SURFACE_SIDE_STYLE('',(#236));
#176=EDGE_LOOP('',(#237));
#177=EDGE_LOOP('',(#238));
#178=AXIS2_PLACEMENT_3D('',#239,#240,#241);
#179=SURFACE_SIDE_STYLE('',(#242));
#180=EDGE_LOOP('',(#243,#244,#245,#246,#247,#248,#249,#250,#251,#252));
#181=AXIS2_PLACEMENT_3D('',#253,#254,#255);
#182=SURFACE_SIDE_STYLE('',(#256));
#183=EDGE_LOOP('',(#257));
#184=EDGE_LOOP('',(#258,#259));
#185=AXIS2_PLACEMENT_3D('',#260,#261,#262);
#186=SURFACE_SIDE_STYLE('',(#263));
#187=EDGE_LOOP('',(#264,#265,#266,#267));
#188=AXIS2_PLACEMENT_3D('',#268,#269,#270);
#189=SURFACE_SIDE_STYLE('',(#271));
#190=EDGE_LOOP('',(#272));
#191=EDGE_LOOP('',(#273));
#192=AXIS2_PLACEMENT_3D('',#274,#275,#276);
#193=SURFACE_SIDE_STYLE('',(#277));
#194=EDGE_LOOP('',(#278));
#195=EDGE_LOOP('',(#279));
#196=AXIS2_PLACEMENT_3D('',#280,#281,#282);
#197=SURFACE_SIDE_STYLE('',(#283));
#198=EDGE_LOOP('',(#284));
#199=EDGE_LOOP('',(#285));
#200=AXIS2_PLACEMENT_3D('',#286,#287,#288);
#201=SURFACE_SIDE_STYLE('',(#289));
#202=EDGE_LOOP('',(#290));
#203=EDGE_LOOP('',(#291));
#204=AXIS2_PLACEMENT_3D('',#292,#293,#294);
#205=SURFACE_SIDE_STYLE('',(#295));
#206=EDGE_LOOP('',(#296));
#207=EDGE_LOOP('',(#297));
#208=AXIS2_PLACEMENT_3D('',#298,#299,#300);
#209=SURFACE_SIDE_STYLE('',(#301));
#210=EDGE_LOOP('',(#302));
#211=EDGE_LOOP('',(#303));
#212=AXIS2_PLACEMENT_3D('',#304,#305,#306);
#213=SURFACE_SIDE_STYLE('',(#307));
#214=EDGE_LOOP('',(#308,#309,#310,#311));
#215=AXIS2_PLACEMENT_3D('',#312,#313,#314);
#216=SURFACE_SIDE_STYLE('',(#315));
#217=EDGE_LOOP('',(#316,#317,#318,#319));
#218=AXIS2_PLACEMENT_3D('',#320,#321,#322);
#219=SURFACE_SIDE_STYLE('',(#323));
#220=EDGE_LOOP('',(#324));
#221=EDGE_LOOP('',(#325));
#222=AXIS2_PLACEMENT_3D('',#326,#327,#328);
#223=SURFACE_SIDE_STYLE('',(#329));
#224=EDGE_LOOP('',(#330));
#225=EDGE_LOOP('',(#331));
#226=AXIS2_PLACEMENT_3D('',#332,#333,#334);
#227=SURFACE_SIDE_STYLE('',(#335));
#228=EDGE_LOOP('',(#336));
#229=EDGE_LOOP('',(#337,#338));
#230=AXIS2_PLACEMENT_3D('',#339,#340,#341);
#231=SURFACE_SIDE_STYLE('',(#342));
#232=EDGE_LOOP('',(#343,#344,#345,#346));
#233=AXIS2_PLACEMENT_3D('',#347,#348,#349);
#234=SURFACE_SIDE_STYLE('',(#350));
#236=SURFACE_STYLE_FILL_AREA(#351);
#237=ORIENTED_EDGE('',*,*,#352,.F.);
#238=ORIENTED_EDGE('',*,*,#353,.F.);
#239=CARTESIAN_POINT('',(0.5,0.0,0.0));
#240=DIRECTION('',(-1.0,0.0,-0.0));
#241=DIRECTION('',(0.0,0.0,1.0));
#242=SURFACE_STYLE_FILL_AREA(#354);
#243=ORIENTED_EDGE('',*,*,#355,.T.);
#244=ORIENTED_EDGE('',*,*,#356,.F.);
#245=ORIENTED_EDGE('',*,*,#357,.T.);
#246=ORIENTED_EDGE('',*,*,#358,.T.);
#247=ORIENTED_EDGE('',*,*,#359,.T.);
#248=ORIENTED_EDGE('',*,*,#360,.F.);
#249=ORIENTED_EDGE('',*,*,#361,.T.);
#250=ORIENTED_EDGE('',*,*,#362,.F.);
#251=ORIENTED_EDGE('',*,*,#363,.T.);
#252=ORIENTED_EDGE('',*,*,#364,.F.);
#253=CARTESIAN_POINT('',(500000.0,-5.0,0.0));
#254=DIRECTION('',(0.0,1.0,-6.12303176911189E-17));
#255=DIRECTION('',(0.0,-6.12303176911189E-17,-1.0));
#256=SURFACE_STYLE_FILL_AREA(#365);
#257=ORIENTED_EDGE('',*,*,#366,.T.);
#258=ORIENTED_EDGE('',*,*,#358,.F.);
#259=ORIENTED_EDGE('',*,*,#367,.F.);
#260=CARTESIAN_POINT('',(3.72179869516245,0.0,0.0));
#261=DIRECTION('',(1.0,-0.0,0.0));
#262=DIRECTION('',(0.0,0.0,-1.0));
#263=SURFACE_STYLE_FILL_AREA(#368);
#264=ORIENTED_EDGE('',*,*,#357,.F.);
#265=ORIENTED_EDGE('',*,*,#369,.T.);
#266=ORIENTED_EDGE('',*,*,#359,.F.);
#267=ORIENTED_EDGE('',*,*,#367,.T.);
#268=CARTESIAN_POINT('',(4.00000000000012,6.74339945173379,0.0));
#269=DIRECTION('',(-1.0,0.0,0.0));
#270=DIRECTION('',(0.0,0.0,1.0));
#271=SURFACE_STYLE_FILL_AREA(#370);
#272=ORIENTED_EDGE('',*,*,#366,.F.);
#273=ORIENTED_EDGE('',*,*,#371,.T.);
#274=CARTESIAN_POINT('',(3.90000000000012,0.0,0.0));
#275=DIRECTION('',(-1.0,0.0,0.0));
#276=DIRECTION('',(0.0,0.0,1.0));
#277=SURFACE_STYLE_FILL_AREA(#372);
#278=ORIENTED_EDGE('',*,*,#371,.F.);
#279=ORIENTED_EDGE('',*,*,#373,.T.);
#280=CARTESIAN_POINT('',(0.0,0.0,0.0));
#281=DIRECTION('',(-1.0,0.0,0.0));
#282=DIRECTION('',(0.0,0.0,1.0));
#283=SURFACE_STYLE_FILL_AREA(#374);
#284=ORIENTED_EDGE('',*,*,#373,.F.);
#285=ORIENTED_EDGE('',*,*,#375,.T.);
#286=CARTESIAN_POINT('',(4.26507057125729,0.0,0.0));
#287=DIRECTION('',(-1.0,0.0,0.0));
#288=DIRECTION('',(0.0,0.0,1.0));
#289=SURFACE_STYLE_FILL_AREA(#376);
#290=ORIENTED_EDGE('',*,*,#375,.F.);
#291=ORIENTED_EDGE('',*,*,#377,.T.);
#292=CARTESIAN_POINT('',(5.00000000000012,0.0,0.0));
#293=DIRECTION('',(1.0,-0.0,0.0));
#294=DIRECTION('',(0.0,0.0,-1.0));
#295=SURFACE_STYLE_FILL_AREA(#378);
#296=ORIENTED_EDGE('',*,*,#377,.F.);
#297=ORIENTED_EDGE('',*,*,#379,.T.);
#298=CARTESIAN_POINT('',(0.0,0.0,0.0));
#299=DIRECTION('',(-1.0,0.0,0.0));
#300=DIRECTION('',(0.0,0.0,1.0));
#301=SURFACE_STYLE_FILL_AREA(#380);
#302=ORIENTED_EDGE('',*,*,#379,.F.);
#303=ORIENTED_EDGE('',*,*,#381,.T.);
#304=CARTESIAN_POINT('',(80.0,4.3054636362438,0.0));
#305=DIRECTION('',(-1.0,0.0,0.0));
#306=DIRECTION('',(0.0,0.0,1.0));
#307=SURFACE_STYLE_FILL_AREA(#382);
#308=ORIENTED_EDGE('',*,*,#383,.F.);
#309=ORIENTED_EDGE('',*,*,#360,.T.);
#310=ORIENTED_EDGE('',*,*,#369,.F.);
#311=ORIENTED_EDGE('',*,*,#356,.T.);
#312=CARTESIAN_POINT('',(3.50000000000012,0.0,0.0));
#313=DIRECTION('',(-1.0,0.0,-0.0));
#314=DIRECTION('',(0.0,0.0,1.0));
#315=SURFACE_STYLE_FILL_AREA(#384);
#316=ORIENTED_EDGE('',*,*,#385,.F.);
#317=ORIENTED_EDGE('',*,*,#364,.T.);
#318=ORIENTED_EDGE('',*,*,#386,.F.);
#319=ORIENTED_EDGE('',*,*,#362,.T.);
#320=CARTESIAN_POINT('',(0.0,0.0,0.0));
#321=DIRECTION('',(1.0,-0.0,0.0));
#322=DIRECTION('',(0.0,0.0,-1.0));
#323=SURFACE_STYLE_FILL_AREA(#387);
#324=ORIENTED_EDGE('',*,*,#353,.T.);
#325=ORIENTED_EDGE('',*,*,#388,.F.);
#326=CARTESIAN_POINT('',(0.0,0.0,0.0));
#327=DIRECTION('',(-1.0,0.0,0.0));
#328=DIRECTION('',(0.0,0.0,1.0));
#329=SURFACE_STYLE_FILL_AREA(#389);
#330=ORIENTED_EDGE('',*,*,#381,.F.);
#331=ORIENTED_EDGE('',*,*,#388,.T.);
#332=CARTESIAN_POINT('',(45.0,0.0,0.0));
#333=DIRECTION('',(1.0,-0.0,0.0));
#334=DIRECTION('',(0.0,0.0,-1.0));
#335=SURFACE_STYLE_FILL_AREA(#390);
#336=ORIENTED_EDGE('',*,*,#352,.T.);
#337=ORIENTED_EDGE('',*,*,#363,.F.);
#338=ORIENTED_EDGE('',*,*,#386,.T.);
#339=CARTESIAN_POINT('',(0.0,5.5,0.0));
#340=DIRECTION('',(1.0,0.0,0.0));
#341=DIRECTION('',(0.0,0.0,-1.0));
#342=SURFACE_STYLE_FILL_AREA(#391);
#343=ORIENTED_EDGE('',*,*,#355,.F.);
#344=ORIENTED_EDGE('',*,*,#385,.T.);
#345=ORIENTED_EDGE('',*,*,#361,.F.);
#346=ORIENTED_EDGE('',*,*,#383,.T.);
#347=CARTESIAN_POINT('',(0.0,0.0,0.0));
#348=DIRECTION('',(-1.0,0.0,0.0));
#349=DIRECTION('',(0.0,0.0,1.0));
#350=SURFACE_STYLE_FILL_AREA(#392);
#351=FILL_AREA_STYLE('',(#393));
#352=EDGE_CURVE('',#394,#394,#395,.T.);
#353=EDGE_CURVE('',#396,#396,#397,.F.);
#354=FILL_AREA_STYLE('',(#398));
#355=EDGE_CURVE('',#399,#400,#401,.F.);
#356=EDGE_CURVE('',#402,#400,#403,.T.);
#357=EDGE_CURVE('',#402,#404,#405,.T.);
#358=EDGE_CURVE('',#404,#406,#407,.T.);
#359=EDGE_CURVE('',#406,#408,#409,.T.);
#360=EDGE_CURVE('',#410,#408,#411,.T.);
#361=EDGE_CURVE('',#410,#412,#413,.T.);
#362=EDGE_CURVE('',#414,#412,#415,.T.);
#363=EDGE_CURVE('',#414,#416,#417,.T.);
#364=EDGE_CURVE('',#399,#416,#418,.T.);
#365=FILL_AREA_STYLE('',(#419));
#366=EDGE_CURVE('',#420,#420,#421,.T.);
#367=EDGE_CURVE('',#406,#404,#422,.T.);
#368=FILL_AREA_STYLE('',(#423));
#369=EDGE_CURVE('',#402,#408,#424,.F.);
#370=FILL_AREA_STYLE('',(#425));
#371=EDGE_CURVE('',#426,#426,#427,.T.);
#372=FILL_AREA_STYLE('',(#428));
#373=EDGE_CURVE('',#429,#429,#430,.T.);
#374=FILL_AREA_STYLE('',(#431));
#375=EDGE_CURVE('',#432,#432,#433,.T.);
#376=FILL_AREA_STYLE('',(#434));
#377=EDGE_CURVE('',#435,#435,#436,.T.);
#378=FILL_AREA_STYLE('',(#437));
#379=EDGE_CURVE('',#438,#438,#439,.T.);
#380=FILL_AREA_STYLE('',(#440));
#381=EDGE_CURVE('',#441,#441,#442,.T.);
#382=FILL_AREA_STYLE('',(#443));
#383=EDGE_CURVE('',#410,#400,#444,.T.);
#384=FILL_AREA_STYLE('',(#445));
#385=EDGE_CURVE('',#399,#412,#446,.T.);
#386=EDGE_CURVE('',#414,#416,#447,.F.);
#387=FILL_AREA_STYLE('',(#448));
#388=EDGE_CURVE('',#449,#449,#450,.T.);
#389=FILL_AREA_STYLE('',(#451));
#390=FILL_AREA_STYLE('',(#452));
#391=FILL_AREA_STYLE('',(#453));
#392=FILL_AREA_STYLE('',(#454));
#393=FILL_AREA_STYLE_COLOUR('',#455);
#394=VERTEX_POINT('',#456);
#395=CIRCLE('',#457,3.28867513459481);
#396=VERTEX_POINT('',#458);
#397=CIRCLE('',#459,3.0);
#398=FILL_AREA_STYLE_COLOUR('',#460);
#399=VERTEX_POINT('',#461);
#400=VERTEX_POINT('',#462);
#401=LINE('',#463,#464);
#402=VERTEX_POINT('',#465);
#403=B_SPLINE_CURVE_WITH_KNOTS('',3,(#466,#467,#468,#469),.UNSPECIFIED.,.F.,.F.,(4,4),(0.027627796830677,0.0284541007109979),.UNSPECIFIED.);
#404=VERTEX_POINT('',#470);
#405=LINE('',#471,#472);
#406=VERTEX_POINT('',#473);
#407=B_SPLINE_CURVE_WITH_KNOTS('',3,(#474,#475,#476,#477,#478,#479,#480,#481,#482,#483),.UNSPECIFIED.,.F.,.F.,(4,2,2,2,4),(0.00554077063065884,0.00667751131426569,0.00781425199787255,0.00895099268147941,0.0100877333650863),.UNSPECIFIED.);
#408=VERTEX_POINT('',#484);
#409=LINE('',#485,#486);
#410=VERTEX_POINT('',#487);
#411=B_SPLINE_CURVE_WITH_KNOTS('',3,(#488,#489,#490,#491),.UNSPECIFIED.,.F.,.F.,(4,4),(0.0143344638043189,0.015158109007881),.UNSPECIFIED.);
#412=VERTEX_POINT('',#492);
#413=LINE('',#493,#494);
#414=VERTEX_POINT('',#495);
#415=B_SPLINE_CURVE_WITH_KNOTS('',3,(#496,#497,#498,#499),.UNSPECIFIED.,.F.,.F.,(4,4),(0.027627796830677,0.0284541007109979),.UNSPECIFIED.);
#416=VERTEX_POINT('',#500);
#417=LINE('',#501,#502);
#418=B_SPLINE_CURVE_WITH_KNOTS('',3,(#503,#504,#505,#506),.UNSPECIFIED.,.F.,.F.,(4,4),(0.0143344638043189,0.015158109007881),.UNSPECIFIED.);
#419=FILL_AREA_STYLE_COLOUR('',#507);
#420=VERTEX_POINT('',#508);
#421=CIRCLE('',#509,4.94079809994791);
#422=CIRCLE('',#510,5.48679890346757);
#423=FILL_AREA_STYLE_COLOUR('',#511);
#424=CIRCLE('',#512,7.5);
#425=FILL_AREA_STYLE_COLOUR('',#513);
#426=VERTEX_POINT('',#514);
#427=CIRCLE('',#515,4.65);
#428=FILL_AREA_STYLE_COLOUR('',#516);
#429=VERTEX_POINT('',#517);
#430=CIRCLE('',#518,4.65);
#431=FILL_AREA_STYLE_COLOUR('',#519);
#432=VERTEX_POINT('',#520);
#433=CIRCLE('',#521,4.67179869516233);
#434=FILL_AREA_STYLE_COLOUR('',#522);
#435=VERTEX_POINT('',#523);
#436=CIRCLE('',#524,5.0);
#437=FILL_AREA_STYLE_COLOUR('',#525);
#438=VERTEX_POINT('',#526);
#439=CIRCLE('',#527,5.0);
#440=FILL_AREA_STYLE_COLOUR('',#528);
#441=VERTEX_POINT('',#529);
#442=CIRCLE('',#530,3.61092727248761);
#443=FILL_AREA_STYLE_COLOUR('',#531);
#444=CIRCLE('',#532,8.0);
#445=FILL_AREA_STYLE_COLOUR('',#533);
#446=CIRCLE('',#534,8.0);
#447=CIRCLE('',#535,7.5);
#448=FILL_AREA_STYLE_COLOUR('',#536);
#449=VERTEX_POINT('',#537);
#450=CIRCLE('',#538,3.0);
#451=FILL_AREA_STYLE_COLOUR('',#539);
#452=FILL_AREA_STYLE_COLOUR('',#540);
#453=FILL_AREA_STYLE_COLOUR('',#541);
#454=FILL_AREA_STYLE_COLOUR('',#542);
#455=COLOUR_RGB('',0.752941191196442,0.752941191196442,0.752941191196442);
#456=CARTESIAN_POINT('',(0.0,0.0,-3.28867513459481));
#457=AXIS2_PLACEMENT_3D('',#543,#544,#545);
#458=CARTESIAN_POINT('',(0.5,-7.34788079488412E-16,-3.0));
#459=AXIS2_PLACEMENT_3D('',#546,#547,#548);
#460=COLOUR_RGB('',0.752941191196442,0.752941191196442,0.752941191196442);
#461=CARTESIAN_POINT('',(0.5,-5.0,-6.2449979983984));
#462=CARTESIAN_POINT('',(3.50000000000012,-5.0,-6.2449979983984));
#463=CARTESIAN_POINT('',(0.0,-5.0,-6.2449979983984));
#464=VECTOR('',#549,1.0);
#465=CARTESIAN_POINT('',(4.00000000000012,-5.0,-5.59016994374948));
#466=CARTESIAN_POINT('',(4.00000000000013,-5.0,-5.59016994374946));
#467=CARTESIAN_POINT('',(3.8357214107469,-5.0,-5.81057279944025));
#468=CARTESIAN_POINT('',(3.66886400652188,-5.0,-6.02867894553073));
#469=CARTESIAN_POINT('',(3.50000000000011,-5.0,-6.24499799839842));
#470=CARTESIAN_POINT('',(4.00000000000012,-5.0,-2.25941634213195));
#471=CARTESIAN_POINT('',(4.0000000000191,-5.0,0.0));
#472=VECTOR('',#550,1.0);
#473=CARTESIAN_POINT('',(4.00000000000012,-5.0,2.25941634213195));
#474=CARTESIAN_POINT('',(4.00000000000012,-5.0,-2.25941634213196));
#475=CARTESIAN_POINT('',(3.92164248041792,-5.0,-1.88596194555272));
#476=CARTESIAN_POINT('',(3.8588615461082,-5.0,-1.5088691583304));
#477=CARTESIAN_POINT('',(3.77414905901034,-5.0,-0.7563003153664));
#478=CARTESIAN_POINT('',(3.75204521895691,-5.0,-0.379493039767136));
#479=CARTESIAN_POINT('',(3.75188237763704,-5.0,0.375258612285087));
#480=CARTESIAN_POINT('',(3.7738328423677,-5.0,0.753203233120674));
#481=CARTESIAN_POINT('',(3.85897420360797,-5.0,1.51015717457221));
#482=CARTESIAN_POINT('',(3.92222666810586,-5.0,1.88874620240073));
#483=CARTESIAN_POINT('',(4.00000000000012,-5.0,2.25941634213194));
#484=CARTESIAN_POINT('',(4.00000000000012,-5.0,5.59016994374948));
#485=CARTESIAN_POINT('',(4.0000000000191,-5.0,0.0));
#486=VECTOR('',#551,1.0);
#487=CARTESIAN_POINT('',(3.50000000000012,-5.0,6.2449979983984));
#488=CARTESIAN_POINT('',(3.50000000000014,-5.0,6.24499799839842));
#489=CARTESIAN_POINT('',(3.66894420244784,-5.0,6.02857621252623));
#490=CARTESIAN_POINT('',(3.83580611732814,-5.0,5.81045915363598));
#491=CARTESIAN_POINT('',(4.00000000000012,-5.0,5.59016994374948));
#492=CARTESIAN_POINT('',(0.5,-5.0,6.2449979983984));
#493=CARTESIAN_POINT('',(0.0,-5.0,6.2449979983984));
#494=VECTOR('',#552,1.0);
#495=CARTESIAN_POINT('',(0.0,-5.0,5.59016994374948));
#496=CARTESIAN_POINT('',(-2.75628593608596E-15,-5.0,5.59016994374947));
#497=CARTESIAN_POINT('',(0.164278589253223,-5.0,5.81057279944026));
#498=CARTESIAN_POINT('',(0.331135993478248,-5.0,6.02867894553074));
#499=CARTESIAN_POINT('',(0.500000000000017,-5.0,6.24499799839843));
#500=CARTESIAN_POINT('',(0.0,-5.0,-5.59016994374948));
#501=CARTESIAN_POINT('',(0.0,-5.0,0.0));
#502=VECTOR('',#553,1.0);
#503=CARTESIAN_POINT('',(0.499999999999973,-5.0,-6.24499799839841));
#504=CARTESIAN_POINT('',(0.331055797552268,-5.0,-6.02857621252622));
#505=CARTESIAN_POINT('',(0.164193882671976,-5.0,-5.81045915363597));
#506=CARTESIAN_POINT('',(-5.69410661526799E-15,-5.0,-5.59016994374947));
#507=COLOUR_RGB('',0.752941191196442,0.752941191196442,0.752941191196442);
#508=CARTESIAN_POINT('',(3.72179869516245,0.0,4.94079809994791));
#509=AXIS2_PLACEMENT_3D('',#554,#555,#556);
#510=AXIS2_PLACEMENT_3D('',#557,#558,#559);
#511=COLOUR_RGB('',0.752941191196442,0.752941191196442,0.752941191196442);
#512=AXIS2_PLACEMENT_3D('',#560,#561,#562);
#513=COLOUR_RGB('',0.752941191196442,0.752941191196442,0.752941191196442);
#514=CARTESIAN_POINT('',(3.90000000000012,0.0,4.65));
#515=AXIS2_PLACEMENT_3D('',#563,#564,#565);
#516=COLOUR_RGB('',0.752941191196442,0.752941191196442,0.752941191196442);
#517=CARTESIAN_POINT('',(4.26507057125729,0.0,4.65));
#518=AXIS2_PLACEMENT_3D('',#566,#567,#568);
#519=COLOUR_RGB('',0.752941191196442,0.752941191196442,0.752941191196442);
#520=CARTESIAN_POINT('',(4.35586867120521,0.0,4.67179869516233));
#521=AXIS2_PLACEMENT_3D('',#569,#570,#571);
#522=COLOUR_RGB('',0.752941191196442,0.752941191196442,0.752941191196442);
#523=CARTESIAN_POINT('',(5.00000000000012,0.0,5.0));
#524=AXIS2_PLACEMENT_3D('',#572,#573,#574);
#525=COLOUR_RGB('',0.752941191196442,0.752941191196442,0.752941191196442);
#526=CARTESIAN_POINT('',(80.0,0.0,5.0));
#527=AXIS2_PLACEMENT_3D('',#575,#576,#577);
#528=COLOUR_RGB('',0.752941191196442,0.752941191196442,0.752941191196442);
#529=CARTESIAN_POINT('',(80.0,0.0,3.61092727248761));
#530=AXIS2_PLACEMENT_3D('',#578,#579,#580);
#531=COLOUR_RGB('',0.752941191196442,0.752941191196442,0.752941191196442);
#532=AXIS2_PLACEMENT_3D('',#581,#582,#583);
#533=COLOUR_RGB('',0.752941191196442,0.752941191196442,0.752941191196442);
#534=AXIS2_PLACEMENT_3D('',#584,#585,#586);
#535=AXIS2_PLACEMENT_3D('',#587,#588,#589);
#536=COLOUR_RGB('',0.752941191196442,0.752941191196442,0.752941191196442);
#537=CARTESIAN_POINT('',(45.0,0.0,3.0));
#538=AXIS2_PLACEMENT_3D('',#590,#591,#592);
#539=COLOUR_RGB('',0.752941191196442,0.752941191196442,0.752941191196442);
#540=COLOUR_RGB('',0.752941191196442,0.752941191196442,0.752941191196442);
#541=COLOUR_RGB('',0.752941191196442,0.752941191196442,0.752941191196442);
#542=COLOUR_RGB('',0.752941191196442,0.752941191196442,0.752941191196442);
#543=CARTESIAN_POINT('',(0.0,0.0,0.0));
#544=DIRECTION('',(1.0,0.0,0.0));
#545=DIRECTION('',(0.0,0.0,-1.0));
#546=CARTESIAN_POINT('',(0.5,0.0,0.0));
#547=DIRECTION('',(1.0,0.0,0.0));
#548=DIRECTION('',(0.0,0.0,-1.0));
#549=DIRECTION('',(-1.0,0.0,0.0));
#550=DIRECTION('',(0.0,6.12303176911189E-17,1.0));
#551=DIRECTION('',(0.0,6.12303176911189E-17,1.0));
#552=DIRECTION('',(-1.0,0.0,0.0));
#553=DIRECTION('',(0.0,-6.12303176911189E-17,-1.0));
#554=CARTESIAN_POINT('',(3.72179869516245,0.0,0.0));
#555=DIRECTION('',(-1.0,0.0,0.0));
#556=DIRECTION('',(0.0,0.0,1.0));
#557=CARTESIAN_POINT('',(4.00000000000012,0.0,0.0));
#558=DIRECTION('',(-1.0,0.0,0.0));
#559=DIRECTION('',(0.0,0.0,1.0));
#560=CARTESIAN_POINT('',(4.00000000000012,0.0,0.0));
#561=DIRECTION('',(-1.0,0.0,0.0));
#562=DIRECTION('',(0.0,0.0,1.0));
#563=CARTESIAN_POINT('',(3.90000000000012,0.0,0.0));
#564=DIRECTION('',(-1.0,0.0,0.0));
#565=DIRECTION('',(0.0,0.0,1.0));
#566=CARTESIAN_POINT('',(4.26507057125729,0.0,0.0));
#567=DIRECTION('',(-1.0,0.0,0.0));
#568=DIRECTION('',(0.0,0.0,1.0));
#569=CARTESIAN_POINT('',(4.35586867120521,0.0,0.0));
#570=DIRECTION('',(-1.0,0.0,0.0));
#571=DIRECTION('',(0.0,0.0,1.0));
#572=CARTESIAN_POINT('',(5.00000000000012,0.0,0.0));
#573=DIRECTION('',(-1.0,0.0,0.0));
#574=DIRECTION('',(0.0,0.0,1.0));
#575=CARTESIAN_POINT('',(80.0,0.0,0.0));
#576=DIRECTION('',(-1.0,0.0,0.0));
#577=DIRECTION('',(0.0,0.0,1.0));
#578=CARTESIAN_POINT('',(80.0,0.0,0.0));
#579=DIRECTION('',(-1.0,0.0,0.0));
#580=DIRECTION('',(0.0,0.0,1.0));
#581=CARTESIAN_POINT('',(3.50000000000012,0.0,0.0));
#582=DIRECTION('',(-1.0,0.0,0.0));
#583=DIRECTION('',(0.0,0.0,1.0));
#584=CARTESIAN_POINT('',(0.5,0.0,0.0));
#585=DIRECTION('',(1.0,0.0,0.0));
#586=DIRECTION('',(0.0,0.0,-1.0));
#587=CARTESIAN_POINT('',(0.0,0.0,0.0));
#588=DIRECTION('',(1.0,0.0,0.0));
#589=DIRECTION('',(0.0,0.0,-1.0));
#590=CARTESIAN_POINT('',(45.0,0.0,0.0));
#591=DIRECTION('',(-1.0,0.0,0.0));
#592=DIRECTION('',(0.0,0.0,1.0));
ENDSEC;
END-ISO-10303-21;
