ISO-10303-21;
HEADER;
FILE_DESCRIPTION(('STEP AP214'),'1');
FILE_NAME('CS51011_14-100-8.stp','2019-09-16T07:31:26',(' '),(' '),'Spatial InterOp 3D',' ',' ');
FILE_SCHEMA(('AUTOMOTIVE_DESIGN { 1 0 10303 214 1 1 1 1 }'));
ENDSEC;
DATA;
#1=MECHANICAL_DESIGN_GEOMETRIC_PRESENTATION_REPRESENTATION(' ',(#16,#17,#18,#19,#20,#21,#22,#23,#24,#25,#26,#27,#28,#29,#30,#31,#32),#6);
#2=PRODUCT_DEFINITION_CONTEXT('',#33,'design');
#3=APPLICATION_PROTOCOL_DEFINITION('INTERNATIONAL STANDARD','automotive_design',1994,#33);
#4=PRODUCT_CATEGORY_RELATIONSHIP('NONE','NONE',#34,#35);
#5=SHAPE_DEFINITION_REPRESENTATION(#36,#37);
#6= (GEOMETRIC_REPRESENTATION_CONTEXT(3)GLOBAL_UNCERTAINTY_ASSIGNED_CONTEXT((#40))GLOBAL_UNIT_ASSIGNED_CONTEXT((#42,#43,#44))REPRESENTATION_CONTEXT('NONE','WORKSPACE'));
#7=PROPERTY_DEFINITION_REPRESENTATION(#46,#47);
#8=GENERAL_PROPERTY_ASSOCIATION('','',#48,#46);
#9=PROPERTY_DEFINITION_REPRESENTATION(#49,#50);
#10=GENERAL_PROPERTY_ASSOCIATION('','',#51,#49);
#11=PROPERTY_DEFINITION_REPRESENTATION(#52,#53);
#12=GENERAL_PROPERTY_ASSOCIATION('','',#54,#52);
#16=STYLED_ITEM('',(#55),#56);
#17=STYLED_ITEM('',(#57),#58);
#18=STYLED_ITEM('',(#59),#60);
#19=STYLED_ITEM('',(#61),#62);
#20=STYLED_ITEM('',(#63),#64);
#21=STYLED_ITEM('',(#65),#66);
#22=STYLED_ITEM('',(#67),#68);
#23=STYLED_ITEM('',(#69),#70);
#24=STYLED_ITEM('',(#71),#72);
#25=STYLED_ITEM('',(#73),#74);
#26=STYLED_ITEM('',(#75),#76);
#27=STYLED_ITEM('',(#77),#78);
#28=STYLED_ITEM('',(#79),#80);
#29=STYLED_ITEM('',(#81),#82);
#30=STYLED_ITEM('',(#83),#84);
#31=STYLED_ITEM('',(#85),#86);
#32=STYLED_ITEM('',(#87),#88);
#33=APPLICATION_CONTEXT(' ');
#34=PRODUCT_CATEGORY('part','NONE');
#35=PRODUCT_RELATED_PRODUCT_CATEGORY('detail',' ',(#89));
#36=PRODUCT_DEFINITION_SHAPE('NONE','NONE',#90);
#37=ADVANCED_BREP_SHAPE_REPRESENTATION('CS51011/14-100-8',(#88,#91),#6);
#40=UNCERTAINTY_MEASURE_WITH_UNIT(LENGTH_MEASURE(0.001),#42,'','');
#42= (CONVERSION_BASED_UNIT('MILLIMETRE',#94)LENGTH_UNIT()NAMED_UNIT(#97));
#43= (NAMED_UNIT(#99)PLANE_ANGLE_UNIT()SI_UNIT($,.RADIAN.));
#44= (NAMED_UNIT(#99)SOLID_ANGLE_UNIT()SI_UNIT($,.STERADIAN.));
#46=PROPERTY_DEFINITION('PdmObjectId','',#90);
#47=REPRESENTATION('',(#105),#6);
#48=GENERAL_PROPERTY('','19_881eb239-e411-4156-a454-71cc61bf7749&2_60_0_34','');
#49=PROPERTY_DEFINITION('CreationDate','',#90);
#50=REPRESENTATION('',(#106),#6);
#51=GENERAL_PROPERTY('','12/09/2019 07:46:28','');
#52=PROPERTY_DEFINITION('Minor Revision','',#90);
#53=REPRESENTATION('',(#107),#6);
#54=GENERAL_PROPERTY('','0','');
#55=PRESENTATION_STYLE_ASSIGNMENT((#108));
#56=ADVANCED_FACE('',(#109,#110),#111,.F.);
#57=PRESENTATION_STYLE_ASSIGNMENT((#112));
#58=ADVANCED_FACE('',(#113),#114,.F.);
#59=PRESENTATION_STYLE_ASSIGNMENT((#115));
#60=ADVANCED_FACE('',(#116,#117),#118,.F.);
#61=PRESENTATION_STYLE_ASSIGNMENT((#119));
#62=ADVANCED_FACE('',(#120),#121,.F.);
#63=PRESENTATION_STYLE_ASSIGNMENT((#122));
#64=ADVANCED_FACE('',(#123,#124),#125,.F.);
#65=PRESENTATION_STYLE_ASSIGNMENT((#126));
#66=ADVANCED_FACE('',(#127,#128),#129,.T.);
#67=PRESENTATION_STYLE_ASSIGNMENT((#130));
#68=ADVANCED_FACE('',(#131,#132),#133,.F.);
#69=PRESENTATION_STYLE_ASSIGNMENT((#134));
#70=ADVANCED_FACE('',(#135,#136),#137,.T.);
#71=PRESENTATION_STYLE_ASSIGNMENT((#138));
#72=ADVANCED_FACE('',(#139,#140),#141,.T.);
#73=PRESENTATION_STYLE_ASSIGNMENT((#142));
#74=ADVANCED_FACE('',(#143,#144),#145,.F.);
#75=PRESENTATION_STYLE_ASSIGNMENT((#146));
#76=ADVANCED_FACE('',(#147,#148),#149,.F.);
#77=PRESENTATION_STYLE_ASSIGNMENT((#150));
#78=ADVANCED_FACE('',(#151,#152),#153,.F.);
#79=PRESENTATION_STYLE_ASSIGNMENT((#154));
#80=ADVANCED_FACE('',(#155),#156,.T.);
#81=PRESENTATION_STYLE_ASSIGNMENT((#157));
#82=ADVANCED_FACE('',(#158),#159,.T.);
#83=PRESENTATION_STYLE_ASSIGNMENT((#160));
#84=ADVANCED_FACE('',(#161,#162),#163,.F.);
#85=PRESENTATION_STYLE_ASSIGNMENT((#164));
#86=ADVANCED_FACE('',(#165),#166,.T.);
#87=PRESENTATION_STYLE_ASSIGNMENT((#167));
#88=MANIFOLD_SOLID_BREP('CS51011/14-100-8',#168);
#89=PRODUCT('CS51011/14-100-8','CS51011 ','PART--DESC',(#169));
#90=PRODUCT_DEFINITION('','NONE',#170,#2);
#91=AXIS2_PLACEMENT_3D('',#171,#172,#173);
#94=LENGTH_MEASURE_WITH_UNIT(LENGTH_MEASURE(1.0),#174);
#97=DIMENSIONAL_EXPONENTS(1.0,0.0,0.0,0.0,0.0,0.0,0.0);
#99=DIMENSIONAL_EXPONENTS(0.0,0.0,0.0,0.0,0.0,0.0,0.0);
#105=DESCRIPTIVE_REPRESENTATION_ITEM('','19_881eb239-e411-4156-a454-71cc61bf7749&2_60_0_34');
#106=DESCRIPTIVE_REPRESENTATION_ITEM('','12/09/2019 07:46:28');
#107=DESCRIPTIVE_REPRESENTATION_ITEM('','0');
#108=SURFACE_STYLE_USAGE(.BOTH.,#175);
#109=FACE_OUTER_BOUND('',#176,.T.);
#110=FACE_BOUND('',#177,.T.);
#111=CONICAL_SURFACE('',#178,4.0,0.523598775598299);
#112=SURFACE_STYLE_USAGE(.BOTH.,#179);
#113=FACE_OUTER_BOUND('',#180,.T.);
#114=PLANE('',#181);
#115=SURFACE_STYLE_USAGE(.BOTH.,#182);
#116=FACE_BOUND('',#183,.T.);
#117=FACE_OUTER_BOUND('',#184,.T.);
#118=CONICAL_SURFACE('',#185,6.94079809994791,1.09955742875643);
#119=SURFACE_STYLE_USAGE(.BOTH.,#186);
#120=FACE_OUTER_BOUND('',#187,.T.);
#121=PLANE('',#188);
#122=SURFACE_STYLE_USAGE(.BOTH.,#189);
#123=FACE_OUTER_BOUND('',#190,.T.);
#124=FACE_OUTER_BOUND('',#191,.T.);
#125=TOROIDAL_SURFACE('',#192,6.85,0.2);
#126=SURFACE_STYLE_USAGE(.BOTH.,#193);
#127=FACE_OUTER_BOUND('',#194,.T.);
#128=FACE_OUTER_BOUND('',#195,.T.);
#129=CYLINDRICAL_SURFACE('',#196,6.65);
#130=SURFACE_STYLE_USAGE(.BOTH.,#197);
#131=FACE_OUTER_BOUND('',#198,.T.);
#132=FACE_OUTER_BOUND('',#199,.T.);
#133=TOROIDAL_SURFACE('',#200,6.85,0.2);
#134=SURFACE_STYLE_USAGE(.BOTH.,#201);
#135=FACE_BOUND('',#202,.T.);
#136=FACE_OUTER_BOUND('',#203,.T.);
#137=CONICAL_SURFACE('',#204,7.0,0.471238898038467);
#138=SURFACE_STYLE_USAGE(.BOTH.,#205);
#139=FACE_OUTER_BOUND('',#206,.T.);
#140=FACE_OUTER_BOUND('',#207,.T.);
#141=CYLINDRICAL_SURFACE('',#208,7.0);
#142=SURFACE_STYLE_USAGE(.BOTH.,#209);
#143=FACE_OUTER_BOUND('',#210,.T.);
#144=FACE_BOUND('',#211,.T.);
#145=PLANE('',#212);
#146=SURFACE_STYLE_USAGE(.BOTH.,#213);
#147=FACE_OUTER_BOUND('',#214,.T.);
#148=FACE_BOUND('',#215,.T.);
#149=CONICAL_SURFACE('',#216,4.0,0.0174532925199416);
#150=SURFACE_STYLE_USAGE(.BOTH.,#217);
#151=FACE_OUTER_BOUND('',#218,.T.);
#152=FACE_OUTER_BOUND('',#219,.T.);
#153=CYLINDRICAL_SURFACE('',#220,4.0);
#154=SURFACE_STYLE_USAGE(.BOTH.,#221);
#155=FACE_OUTER_BOUND('',#222,.T.);
#156=CONICAL_SURFACE('',#223,10.0,0.785398163397449);
#157=SURFACE_STYLE_USAGE(.BOTH.,#224);
#158=FACE_OUTER_BOUND('',#225,.T.);
#159=CONICAL_SURFACE('',#226,9.5,0.785398163397449);
#160=SURFACE_STYLE_USAGE(.BOTH.,#227);
#161=FACE_BOUND('',#228,.T.);
#162=FACE_OUTER_BOUND('',#229,.T.);
#163=PLANE('',#230);
#164=SURFACE_STYLE_USAGE(.BOTH.,#231);
#165=FACE_OUTER_BOUND('',#232,.T.);
#166=CYLINDRICAL_SURFACE('',#233,10.0);
#167=SURFACE_STYLE_USAGE(.BOTH.,#234);
#168=CLOSED_SHELL('',(#56,#58,#60,#62,#64,#66,#68,#70,#72,#74,#76,#78,#80,#82,#84,#86));
#169=PRODUCT_CONTEXT('',#33,'mechanical');
#170=PRODUCT_DEFINITION_FORMATION_WITH_SPECIFIED_SOURCE('A','NONE',#89,.NOT_KNOWN.);
#171=CARTESIAN_POINT('',(0.0,0.0,0.0));
#172=DIRECTION('',(0.0,0.0,1.0));
#173=DIRECTION('',(1.0,0.0,0.0));
#174= (NAMED_UNIT(#97)LENGTH_UNIT()SI_UNIT(.MILLI.,.METRE.));
#175=SURFACE_SIDE_STYLE('',(#236));
#176=EDGE_LOOP('',(#237));
#177=EDGE_LOOP('',(#238));
#178=AXIS2_PLACEMENT_3D('',#239,#240,#241);
#179=SURFACE_SIDE_STYLE('',(#242));
#180=EDGE_LOOP('',(#243,#244,#245,#246,#247,#248,#249,#250,#251,#252));
#181=AXIS2_PLACEMENT_3D('',#253,#254,#255);
#182=SURFACE_SIDE_STYLE('',(#256));
#183=EDGE_LOOP('',(#257));
#184=EDGE_LOOP('',(#258,#259));
#185=AXIS2_PLACEMENT_3D('',#260,#261,#262);
#186=SURFACE_SIDE_STYLE('',(#263));
#187=EDGE_LOOP('',(#264,#265,#266,#267));
#188=AXIS2_PLACEMENT_3D('',#268,#269,#270);
#189=SURFACE_SIDE_STYLE('',(#271));
#190=EDGE_LOOP('',(#272));
#191=EDGE_LOOP('',(#273));
#192=AXIS2_PLACEMENT_3D('',#274,#275,#276);
#193=SURFACE_SIDE_STYLE('',(#277));
#194=EDGE_LOOP('',(#278));
#195=EDGE_LOOP('',(#279));
#196=AXIS2_PLACEMENT_3D('',#280,#281,#282);
#197=SURFACE_SIDE_STYLE('',(#283));
#198=EDGE_LOOP('',(#284));
#199=EDGE_LOOP('',(#285));
#200=AXIS2_PLACEMENT_3D('',#286,#287,#288);
#201=SURFACE_SIDE_STYLE('',(#289));
#202=EDGE_LOOP('',(#290));
#203=EDGE_LOOP('',(#291));
#204=AXIS2_PLACEMENT_3D('',#292,#293,#294);
#205=SURFACE_SIDE_STYLE('',(#295));
#206=EDGE_LOOP('',(#296));
#207=EDGE_LOOP('',(#297));
#208=AXIS2_PLACEMENT_3D('',#298,#299,#300);
#209=SURFACE_SIDE_STYLE('',(#301));
#210=EDGE_LOOP('',(#302));
#211=EDGE_LOOP('',(#303));
#212=AXIS2_PLACEMENT_3D('',#304,#305,#306);
#213=SURFACE_SIDE_STYLE('',(#307));
#214=EDGE_LOOP('',(#308));
#215=EDGE_LOOP('',(#309));
#216=AXIS2_PLACEMENT_3D('',#310,#311,#312);
#217=SURFACE_SIDE_STYLE('',(#313));
#218=EDGE_LOOP('',(#314));
#219=EDGE_LOOP('',(#315));
#220=AXIS2_PLACEMENT_3D('',#316,#317,#318);
#221=SURFACE_SIDE_STYLE('',(#319));
#222=EDGE_LOOP('',(#320,#321,#322,#323));
#223=AXIS2_PLACEMENT_3D('',#324,#325,#326);
#224=SURFACE_SIDE_STYLE('',(#327));
#225=EDGE_LOOP('',(#328,#329,#330,#331));
#226=AXIS2_PLACEMENT_3D('',#332,#333,#334);
#227=SURFACE_SIDE_STYLE('',(#335));
#228=EDGE_LOOP('',(#336));
#229=EDGE_LOOP('',(#337,#338));
#230=AXIS2_PLACEMENT_3D('',#339,#340,#341);
#231=SURFACE_SIDE_STYLE('',(#342));
#232=EDGE_LOOP('',(#343,#344,#345,#346));
#233=AXIS2_PLACEMENT_3D('',#347,#348,#349);
#234=SURFACE_SIDE_STYLE('',(#350));
#236=SURFACE_STYLE_FILL_AREA(#351);
#237=ORIENTED_EDGE('',*,*,#352,.F.);
#238=ORIENTED_EDGE('',*,*,#353,.F.);
#239=CARTESIAN_POINT('',(0.5,0.0,0.0));
#240=DIRECTION('',(-1.0,0.0,-0.0));
#241=DIRECTION('',(0.0,0.0,1.0));
#242=SURFACE_STYLE_FILL_AREA(#354);
#243=ORIENTED_EDGE('',*,*,#355,.T.);
#244=ORIENTED_EDGE('',*,*,#356,.F.);
#245=ORIENTED_EDGE('',*,*,#357,.T.);
#246=ORIENTED_EDGE('',*,*,#358,.T.);
#247=ORIENTED_EDGE('',*,*,#359,.T.);
#248=ORIENTED_EDGE('',*,*,#360,.F.);
#249=ORIENTED_EDGE('',*,*,#361,.T.);
#250=ORIENTED_EDGE('',*,*,#362,.F.);
#251=ORIENTED_EDGE('',*,*,#363,.T.);
#252=ORIENTED_EDGE('',*,*,#364,.F.);
#253=CARTESIAN_POINT('',(500000.0,-7.0,0.0));
#254=DIRECTION('',(0.0,1.0,-6.12303176911189E-17));
#255=DIRECTION('',(0.0,-6.12303176911189E-17,-1.0));
#256=SURFACE_STYLE_FILL_AREA(#365);
#257=ORIENTED_EDGE('',*,*,#366,.T.);
#258=ORIENTED_EDGE('',*,*,#358,.F.);
#259=ORIENTED_EDGE('',*,*,#367,.F.);
#260=CARTESIAN_POINT('',(3.72179869516234,0.0,0.0));
#261=DIRECTION('',(1.0,-0.0,0.0));
#262=DIRECTION('',(0.0,0.0,-1.0));
#263=SURFACE_STYLE_FILL_AREA(#368);
#264=ORIENTED_EDGE('',*,*,#357,.F.);
#265=ORIENTED_EDGE('',*,*,#369,.T.);
#266=ORIENTED_EDGE('',*,*,#359,.F.);
#267=ORIENTED_EDGE('',*,*,#367,.T.);
#268=CARTESIAN_POINT('',(4.0,8.74339945173379,0.0));
#269=DIRECTION('',(-1.0,0.0,0.0));
#270=DIRECTION('',(0.0,0.0,1.0));
#271=SURFACE_STYLE_FILL_AREA(#370);
#272=ORIENTED_EDGE('',*,*,#366,.F.);
#273=ORIENTED_EDGE('',*,*,#371,.T.);
#274=CARTESIAN_POINT('',(3.9,0.0,0.0));
#275=DIRECTION('',(-1.0,0.0,0.0));
#276=DIRECTION('',(0.0,0.0,1.0));
#277=SURFACE_STYLE_FILL_AREA(#372);
#278=ORIENTED_EDGE('',*,*,#371,.F.);
#279=ORIENTED_EDGE('',*,*,#373,.T.);
#280=CARTESIAN_POINT('',(0.0,0.0,0.0));
#281=DIRECTION('',(-1.0,0.0,0.0));
#282=DIRECTION('',(0.0,0.0,1.0));
#283=SURFACE_STYLE_FILL_AREA(#374);
#284=ORIENTED_EDGE('',*,*,#373,.F.);
#285=ORIENTED_EDGE('',*,*,#375,.T.);
#286=CARTESIAN_POINT('',(4.26507057125719,0.0,0.0));
#287=DIRECTION('',(-1.0,0.0,0.0));
#288=DIRECTION('',(0.0,0.0,1.0));
#289=SURFACE_STYLE_FILL_AREA(#376);
#290=ORIENTED_EDGE('',*,*,#375,.F.);
#291=ORIENTED_EDGE('',*,*,#377,.T.);
#292=CARTESIAN_POINT('',(5.0,0.0,0.0));
#293=DIRECTION('',(1.0,-0.0,0.0));
#294=DIRECTION('',(0.0,0.0,-1.0));
#295=SURFACE_STYLE_FILL_AREA(#378);
#296=ORIENTED_EDGE('',*,*,#377,.F.);
#297=ORIENTED_EDGE('',*,*,#379,.T.);
#298=CARTESIAN_POINT('',(0.0,0.0,0.0));
#299=DIRECTION('',(-1.0,0.0,0.0));
#300=DIRECTION('',(0.0,0.0,1.0));
#301=SURFACE_STYLE_FILL_AREA(#380);
#302=ORIENTED_EDGE('',*,*,#379,.F.);
#303=ORIENTED_EDGE('',*,*,#381,.T.);
#304=CARTESIAN_POINT('',(100.0,5.8054636362438,0.0));
#305=DIRECTION('',(-1.0,0.0,0.0));
#306=DIRECTION('',(0.0,0.0,1.0));
#307=SURFACE_STYLE_FILL_AREA(#382);
#308=ORIENTED_EDGE('',*,*,#381,.F.);
#309=ORIENTED_EDGE('',*,*,#383,.T.);
#310=CARTESIAN_POINT('',(65.0,0.0,0.0));
#311=DIRECTION('',(1.0,-0.0,0.0));
#312=DIRECTION('',(0.0,0.0,-1.0));
#313=SURFACE_STYLE_FILL_AREA(#384);
#314=ORIENTED_EDGE('',*,*,#353,.T.);
#315=ORIENTED_EDGE('',*,*,#383,.F.);
#316=CARTESIAN_POINT('',(0.0,0.0,0.0));
#317=DIRECTION('',(-1.0,0.0,0.0));
#318=DIRECTION('',(0.0,0.0,1.0));
#319=SURFACE_STYLE_FILL_AREA(#385);
#320=ORIENTED_EDGE('',*,*,#386,.F.);
#321=ORIENTED_EDGE('',*,*,#360,.T.);
#322=ORIENTED_EDGE('',*,*,#369,.F.);
#323=ORIENTED_EDGE('',*,*,#356,.T.);
#324=CARTESIAN_POINT('',(3.5,0.0,0.0));
#325=DIRECTION('',(-1.0,0.0,-0.0));
#326=DIRECTION('',(0.0,0.0,1.0));
#327=SURFACE_STYLE_FILL_AREA(#387);
#328=ORIENTED_EDGE('',*,*,#388,.F.);
#329=ORIENTED_EDGE('',*,*,#364,.T.);
#330=ORIENTED_EDGE('',*,*,#389,.F.);
#331=ORIENTED_EDGE('',*,*,#362,.T.);
#332=CARTESIAN_POINT('',(0.0,0.0,0.0));
#333=DIRECTION('',(1.0,-0.0,0.0));
#334=DIRECTION('',(0.0,0.0,-1.0));
#335=SURFACE_STYLE_FILL_AREA(#390);
#336=ORIENTED_EDGE('',*,*,#352,.T.);
#337=ORIENTED_EDGE('',*,*,#363,.F.);
#338=ORIENTED_EDGE('',*,*,#389,.T.);
#339=CARTESIAN_POINT('',(0.0,7.0,0.0));
#340=DIRECTION('',(1.0,0.0,0.0));
#341=DIRECTION('',(0.0,0.0,-1.0));
#342=SURFACE_STYLE_FILL_AREA(#391);
#343=ORIENTED_EDGE('',*,*,#355,.F.);
#344=ORIENTED_EDGE('',*,*,#388,.T.);
#345=ORIENTED_EDGE('',*,*,#361,.F.);
#346=ORIENTED_EDGE('',*,*,#386,.T.);
#347=CARTESIAN_POINT('',(0.0,0.0,0.0));
#348=DIRECTION('',(-1.0,0.0,0.0));
#349=DIRECTION('',(0.0,0.0,1.0));
#350=SURFACE_STYLE_FILL_AREA(#392);
#351=FILL_AREA_STYLE('',(#393));
#352=EDGE_CURVE('',#394,#394,#395,.T.);
#353=EDGE_CURVE('',#396,#396,#397,.F.);
#354=FILL_AREA_STYLE('',(#398));
#355=EDGE_CURVE('',#399,#400,#401,.F.);
#356=EDGE_CURVE('',#402,#400,#403,.T.);
#357=EDGE_CURVE('',#402,#404,#405,.T.);
#358=EDGE_CURVE('',#404,#406,#407,.T.);
#359=EDGE_CURVE('',#406,#408,#409,.T.);
#360=EDGE_CURVE('',#410,#408,#411,.T.);
#361=EDGE_CURVE('',#410,#412,#413,.T.);
#362=EDGE_CURVE('',#414,#412,#415,.T.);
#363=EDGE_CURVE('',#414,#416,#417,.T.);
#364=EDGE_CURVE('',#399,#416,#418,.T.);
#365=FILL_AREA_STYLE('',(#419));
#366=EDGE_CURVE('',#420,#420,#421,.T.);
#367=EDGE_CURVE('',#406,#404,#422,.T.);
#368=FILL_AREA_STYLE('',(#423));
#369=EDGE_CURVE('',#402,#408,#424,.F.);
#370=FILL_AREA_STYLE('',(#425));
#371=EDGE_CURVE('',#426,#426,#427,.T.);
#372=FILL_AREA_STYLE('',(#428));
#373=EDGE_CURVE('',#429,#429,#430,.T.);
#374=FILL_AREA_STYLE('',(#431));
#375=EDGE_CURVE('',#432,#432,#433,.T.);
#376=FILL_AREA_STYLE('',(#434));
#377=EDGE_CURVE('',#435,#435,#436,.T.);
#378=FILL_AREA_STYLE('',(#437));
#379=EDGE_CURVE('',#438,#438,#439,.T.);
#380=FILL_AREA_STYLE('',(#440));
#381=EDGE_CURVE('',#441,#441,#442,.T.);
#382=FILL_AREA_STYLE('',(#443));
#383=EDGE_CURVE('',#444,#444,#445,.T.);
#384=FILL_AREA_STYLE('',(#446));
#385=FILL_AREA_STYLE('',(#447));
#386=EDGE_CURVE('',#410,#400,#448,.T.);
#387=FILL_AREA_STYLE('',(#449));
#388=EDGE_CURVE('',#399,#412,#450,.T.);
#389=EDGE_CURVE('',#414,#416,#451,.F.);
#390=FILL_AREA_STYLE('',(#452));
#391=FILL_AREA_STYLE('',(#453));
#392=FILL_AREA_STYLE('',(#454));
#393=FILL_AREA_STYLE_COLOUR('',#455);
#394=VERTEX_POINT('',#456);
#395=CIRCLE('',#457,4.28867513459481);
#396=VERTEX_POINT('',#458);
#397=CIRCLE('',#459,4.0);
#398=FILL_AREA_STYLE_COLOUR('',#460);
#399=VERTEX_POINT('',#461);
#400=VERTEX_POINT('',#462);
#401=LINE('',#463,#464);
#402=VERTEX_POINT('',#465);
#403=B_SPLINE_CURVE_WITH_KNOTS('',3,(#466,#467,#468,#469),.UNSPECIFIED.,.F.,.F.,(4,4),(0.0319345325074604,0.0328010101641679),.UNSPECIFIED.);
#404=VERTEX_POINT('',#470);
#405=LINE('',#471,#472);
#406=VERTEX_POINT('',#473);
#407=B_SPLINE_CURVE_WITH_KNOTS('',3,(#474,#475,#476,#477,#478,#479,#480,#481),.UNSPECIFIED.,.F.,.F.,(4,2,2,4),(0.00816255062052022,0.0108300519418016,0.0121638026024423,0.013497553263083),.UNSPECIFIED.);
#408=VERTEX_POINT('',#482);
#409=LINE('',#483,#484);
#410=VERTEX_POINT('',#485);
#411=B_SPLINE_CURVE_WITH_KNOTS('',3,(#486,#487,#488,#489),.UNSPECIFIED.,.F.,.F.,(4,4),(0.0172031809395086,0.018082881442905),.UNSPECIFIED.);
#412=VERTEX_POINT('',#490);
#413=LINE('',#491,#492);
#414=VERTEX_POINT('',#493);
#415=B_SPLINE_CURVE_WITH_KNOTS('',3,(#494,#495,#496,#497),.UNSPECIFIED.,.F.,.F.,(4,4),(0.0319345325074604,0.0328010101641679),.UNSPECIFIED.);
#416=VERTEX_POINT('',#498);
#417=LINE('',#499,#500);
#418=B_SPLINE_CURVE_WITH_KNOTS('',3,(#501,#502,#503,#504),.UNSPECIFIED.,.F.,.F.,(4,4),(0.0172031809395086,0.018082881442905),.UNSPECIFIED.);
#419=FILL_AREA_STYLE_COLOUR('',#505);
#420=VERTEX_POINT('',#506);
#421=CIRCLE('',#507,6.94079809994791);
#422=CIRCLE('',#508,7.48679890346757);
#423=FILL_AREA_STYLE_COLOUR('',#509);
#424=CIRCLE('',#510,9.5);
#425=FILL_AREA_STYLE_COLOUR('',#511);
#426=VERTEX_POINT('',#512);
#427=CIRCLE('',#513,6.65);
#428=FILL_AREA_STYLE_COLOUR('',#514);
#429=VERTEX_POINT('',#515);
#430=CIRCLE('',#516,6.65);
#431=FILL_AREA_STYLE_COLOUR('',#517);
#432=VERTEX_POINT('',#518);
#433=CIRCLE('',#519,6.67179869516233);
#434=FILL_AREA_STYLE_COLOUR('',#520);
#435=VERTEX_POINT('',#521);
#436=CIRCLE('',#522,7.0);
#437=FILL_AREA_STYLE_COLOUR('',#523);
#438=VERTEX_POINT('',#524);
#439=CIRCLE('',#525,7.0);
#440=FILL_AREA_STYLE_COLOUR('',#526);
#441=VERTEX_POINT('',#527);
#442=CIRCLE('',#528,4.61092727248761);
#443=FILL_AREA_STYLE_COLOUR('',#529);
#444=VERTEX_POINT('',#530);
#445=CIRCLE('',#531,4.0);
#446=FILL_AREA_STYLE_COLOUR('',#532);
#447=FILL_AREA_STYLE_COLOUR('',#533);
#448=CIRCLE('',#534,10.0);
#449=FILL_AREA_STYLE_COLOUR('',#535);
#450=CIRCLE('',#536,10.0);
#451=CIRCLE('',#537,9.5);
#452=FILL_AREA_STYLE_COLOUR('',#538);
#453=FILL_AREA_STYLE_COLOUR('',#539);
#454=FILL_AREA_STYLE_COLOUR('',#540);
#455=COLOUR_RGB('',0.752941191196442,0.752941191196442,0.752941191196442);
#456=CARTESIAN_POINT('',(0.0,0.0,-4.28867513459481));
#457=AXIS2_PLACEMENT_3D('',#541,#542,#543);
#458=CARTESIAN_POINT('',(0.5,-9.79717439317883E-16,-4.0));
#459=AXIS2_PLACEMENT_3D('',#544,#545,#546);
#460=COLOUR_RGB('',0.752941191196442,0.752941191196442,0.752941191196442);
#461=CARTESIAN_POINT('',(0.5,-7.0,-7.14142842854285));
#462=CARTESIAN_POINT('',(3.5,-7.0,-7.14142842854285));
#463=CARTESIAN_POINT('',(0.0,-7.0,-7.14142842854285));
#464=VECTOR('',#547,1.0);
#465=CARTESIAN_POINT('',(4.0,-7.0,-6.42261628933256));
#466=CARTESIAN_POINT('',(3.99999999999993,-7.0,-6.42261628933267));
#467=CARTESIAN_POINT('',(3.83630120161382,-7.0,-6.66475103857045));
#468=CARTESIAN_POINT('',(3.6694292436635,-7.0,-6.90418003298892));
#469=CARTESIAN_POINT('',(3.5,-7.0,-7.14142842854285));
#470=CARTESIAN_POINT('',(4.0,-7.0,-2.6555899195778));
#471=CARTESIAN_POINT('',(4.0000000000191,-7.0,0.0));
#472=VECTOR('',#548,1.0);
#473=CARTESIAN_POINT('',(4.0,-7.0,2.65558991957781));
#474=CARTESIAN_POINT('',(4.00000000000002,-7.0,-2.6555899195778));
#475=CARTESIAN_POINT('',(3.84054262309462,-7.0,-1.77329477045473));
#476=CARTESIAN_POINT('',(3.75221128239998,-7.0,-0.889495715254301));
#477=CARTESIAN_POINT('',(3.75184051620264,-7.0,0.438996576758694));
#478=CARTESIAN_POINT('',(3.77331267056779,-7.0,0.882283966367654));
#479=CARTESIAN_POINT('',(3.85747161158006,-7.0,1.76973019771853));
#480=CARTESIAN_POINT('',(3.92055837240075,-7.0,2.21603068419127));
#481=CARTESIAN_POINT('',(4.00000000000002,-7.0,2.6555899195778));
#482=CARTESIAN_POINT('',(4.0,-7.0,6.42261628933256));
#483=CARTESIAN_POINT('',(4.0000000000191,-7.0,0.0));
#484=VECTOR('',#549,1.0);
#485=CARTESIAN_POINT('',(3.5,-7.0,7.14142842854286));
#486=CARTESIAN_POINT('',(3.50000000000001,-7.0,7.14142842854284));
#487=CARTESIAN_POINT('',(3.66962547593606,-7.0,6.90390525284581));
#488=CARTESIAN_POINT('',(3.83650439785055,-7.0,6.66445048126452));
#489=CARTESIAN_POINT('',(4.00000000000002,-7.0,6.42261628933254));
#490=CARTESIAN_POINT('',(0.5,-7.0,7.14142842854285));
#491=CARTESIAN_POINT('',(0.0,-7.0,7.14142842854285));
#492=VECTOR('',#550,1.0);
#493=CARTESIAN_POINT('',(0.0,-7.0,6.42261628933256));
#494=CARTESIAN_POINT('',(8.34553780000838E-14,-7.0,6.4226162893327));
#495=CARTESIAN_POINT('',(0.16369879838619,-7.0,6.66475103857047));
#496=CARTESIAN_POINT('',(0.330570756336515,-7.0,6.90418003298894));
#497=CARTESIAN_POINT('',(0.500000000000012,-7.0,7.14142842854287));
#498=CARTESIAN_POINT('',(0.0,-7.0,-6.42261628933256));
#499=CARTESIAN_POINT('',(0.0,-7.0,0.0));
#500=VECTOR('',#551,1.0);
#501=CARTESIAN_POINT('',(0.500000000000001,-7.0,-7.14142842854285));
#502=CARTESIAN_POINT('',(0.330374524063943,-7.0,-6.90390525284582));
#503=CARTESIAN_POINT('',(0.163495602149455,-7.0,-6.66445048126453));
#504=CARTESIAN_POINT('',(-1.24085831225103E-14,-7.0,-6.42261628933255));
#505=COLOUR_RGB('',0.752941191196442,0.752941191196442,0.752941191196442);
#506=CARTESIAN_POINT('',(3.72179869516234,0.0,6.94079809994791));
#507=AXIS2_PLACEMENT_3D('',#552,#553,#554);
#508=AXIS2_PLACEMENT_3D('',#555,#556,#557);
#509=COLOUR_RGB('',0.752941191196442,0.752941191196442,0.752941191196442);
#510=AXIS2_PLACEMENT_3D('',#558,#559,#560);
#511=COLOUR_RGB('',0.752941191196442,0.752941191196442,0.752941191196442);
#512=CARTESIAN_POINT('',(3.9,0.0,6.65));
#513=AXIS2_PLACEMENT_3D('',#561,#562,#563);
#514=COLOUR_RGB('',0.752941191196442,0.752941191196442,0.752941191196442);
#515=CARTESIAN_POINT('',(4.26507057125719,0.0,6.65));
#516=AXIS2_PLACEMENT_3D('',#564,#565,#566);
#517=COLOUR_RGB('',0.752941191196442,0.752941191196442,0.752941191196442);
#518=CARTESIAN_POINT('',(4.3558686712051,0.0,6.67179869516233));
#519=AXIS2_PLACEMENT_3D('',#567,#568,#569);
#520=COLOUR_RGB('',0.752941191196442,0.752941191196442,0.752941191196442);
#521=CARTESIAN_POINT('',(5.0,0.0,7.0));
#522=AXIS2_PLACEMENT_3D('',#570,#571,#572);
#523=COLOUR_RGB('',0.752941191196442,0.752941191196442,0.752941191196442);
#524=CARTESIAN_POINT('',(100.0,0.0,7.0));
#525=AXIS2_PLACEMENT_3D('',#573,#574,#575);
#526=COLOUR_RGB('',0.752941191196442,0.752941191196442,0.752941191196442);
#527=CARTESIAN_POINT('',(100.0,0.0,4.61092727248761));
#528=AXIS2_PLACEMENT_3D('',#576,#577,#578);
#529=COLOUR_RGB('',0.752941191196442,0.752941191196442,0.752941191196442);
#530=CARTESIAN_POINT('',(65.0,0.0,4.0));
#531=AXIS2_PLACEMENT_3D('',#579,#580,#581);
#532=COLOUR_RGB('',0.752941191196442,0.752941191196442,0.752941191196442);
#533=COLOUR_RGB('',0.752941191196442,0.752941191196442,0.752941191196442);
#534=AXIS2_PLACEMENT_3D('',#582,#583,#584);
#535=COLOUR_RGB('',0.752941191196442,0.752941191196442,0.752941191196442);
#536=AXIS2_PLACEMENT_3D('',#585,#586,#587);
#537=AXIS2_PLACEMENT_3D('',#588,#589,#590);
#538=COLOUR_RGB('',0.752941191196442,0.752941191196442,0.752941191196442);
#539=COLOUR_RGB('',0.752941191196442,0.752941191196442,0.752941191196442);
#540=COLOUR_RGB('',0.752941191196442,0.752941191196442,0.752941191196442);
#541=CARTESIAN_POINT('',(0.0,0.0,0.0));
#542=DIRECTION('',(1.0,0.0,0.0));
#543=DIRECTION('',(0.0,0.0,-1.0));
#544=CARTESIAN_POINT('',(0.5,0.0,0.0));
#545=DIRECTION('',(1.0,0.0,0.0));
#546=DIRECTION('',(0.0,0.0,-1.0));
#547=DIRECTION('',(-1.0,0.0,0.0));
#548=DIRECTION('',(0.0,6.12303176911189E-17,1.0));
#549=DIRECTION('',(0.0,6.12303176911189E-17,1.0));
#550=DIRECTION('',(-1.0,0.0,0.0));
#551=DIRECTION('',(0.0,-6.12303176911189E-17,-1.0));
#552=CARTESIAN_POINT('',(3.72179869516234,0.0,0.0));
#553=DIRECTION('',(-1.0,0.0,0.0));
#554=DIRECTION('',(0.0,0.0,1.0));
#555=CARTESIAN_POINT('',(4.0,0.0,0.0));
#556=DIRECTION('',(-1.0,0.0,0.0));
#557=DIRECTION('',(0.0,0.0,1.0));
#558=CARTESIAN_POINT('',(4.0,0.0,0.0));
#559=DIRECTION('',(-1.0,0.0,0.0));
#560=DIRECTION('',(0.0,0.0,1.0));
#561=CARTESIAN_POINT('',(3.9,0.0,0.0));
#562=DIRECTION('',(-1.0,0.0,0.0));
#563=DIRECTION('',(0.0,0.0,1.0));
#564=CARTESIAN_POINT('',(4.26507057125719,0.0,0.0));
#565=DIRECTION('',(-1.0,0.0,0.0));
#566=DIRECTION('',(0.0,0.0,1.0));
#567=CARTESIAN_POINT('',(4.3558686712051,0.0,0.0));
#568=DIRECTION('',(-1.0,0.0,0.0));
#569=DIRECTION('',(0.0,0.0,1.0));
#570=CARTESIAN_POINT('',(5.0,0.0,0.0));
#571=DIRECTION('',(-1.0,0.0,0.0));
#572=DIRECTION('',(0.0,0.0,1.0));
#573=CARTESIAN_POINT('',(100.0,0.0,0.0));
#574=DIRECTION('',(-1.0,0.0,0.0));
#575=DIRECTION('',(0.0,0.0,1.0));
#576=CARTESIAN_POINT('',(100.0,0.0,0.0));
#577=DIRECTION('',(-1.0,0.0,0.0));
#578=DIRECTION('',(0.0,0.0,1.0));
#579=CARTESIAN_POINT('',(65.0,0.0,0.0));
#580=DIRECTION('',(-1.0,0.0,0.0));
#581=DIRECTION('',(0.0,0.0,1.0));
#582=CARTESIAN_POINT('',(3.5,0.0,0.0));
#583=DIRECTION('',(-1.0,0.0,0.0));
#584=DIRECTION('',(0.0,0.0,1.0));
#585=CARTESIAN_POINT('',(0.5,0.0,0.0));
#586=DIRECTION('',(1.0,0.0,0.0));
#587=DIRECTION('',(0.0,0.0,-1.0));
#588=CARTESIAN_POINT('',(0.0,0.0,0.0));
#589=DIRECTION('',(1.0,0.0,0.0));
#590=DIRECTION('',(0.0,0.0,-1.0));
ENDSEC;
END-ISO-10303-21;
