ISO-10303-21;
HEADER;
FILE_DESCRIPTION(('STEP AP214'),'1');
FILE_NAME('S51011_14-100-8.stp','2019-09-16T07:30:01',(' '),(' '),'Spatial InterOp 3D',' ',' ');
FILE_SCHEMA(('AUTOMOTIVE_DESIGN { 1 0 10303 214 1 1 1 1 }'));
ENDSEC;
DATA;
#1=MECHANICAL_DESIGN_GEOMETRIC_PRESENTATION_REPRESENTATION(' ',(#16,#17,#18,#19,#20,#21,#22,#23,#24,#25,#26,#27,#28,#29,#30,#31),#6);
#2=PRODUCT_DEFINITION_CONTEXT('',#32,'design');
#3=APPLICATION_PROTOCOL_DEFINITION('INTERNATIONAL STANDARD','automotive_design',1994,#32);
#4=PRODUCT_CATEGORY_RELATIONSHIP('NONE','NONE',#33,#34);
#5=SHAPE_DEFINITION_REPRESENTATION(#35,#36);
#6= (GEOMETRIC_REPRESENTATION_CONTEXT(3)GLOBAL_UNCERTAINTY_ASSIGNED_CONTEXT((#39))GLOBAL_UNIT_ASSIGNED_CONTEXT((#41,#42,#43))REPRESENTATION_CONTEXT('NONE','WORKSPACE'));
#7=PROPERTY_DEFINITION_REPRESENTATION(#45,#46);
#8=GENERAL_PROPERTY_ASSOCIATION('','',#47,#45);
#9=PROPERTY_DEFINITION_REPRESENTATION(#48,#49);
#10=GENERAL_PROPERTY_ASSOCIATION('','',#50,#48);
#11=PROPERTY_DEFINITION_REPRESENTATION(#51,#52);
#12=GENERAL_PROPERTY_ASSOCIATION('','',#53,#51);
#16=STYLED_ITEM('',(#54),#55);
#17=STYLED_ITEM('',(#56),#57);
#18=STYLED_ITEM('',(#58),#59);
#19=STYLED_ITEM('',(#60),#61);
#20=STYLED_ITEM('',(#62),#63);
#21=STYLED_ITEM('',(#64),#65);
#22=STYLED_ITEM('',(#66),#67);
#23=STYLED_ITEM('',(#68),#69);
#24=STYLED_ITEM('',(#70),#71);
#25=STYLED_ITEM('',(#72),#73);
#26=STYLED_ITEM('',(#74),#75);
#27=STYLED_ITEM('',(#76),#77);
#28=STYLED_ITEM('',(#78),#79);
#29=STYLED_ITEM('',(#80),#81);
#30=STYLED_ITEM('',(#82),#83);
#31=STYLED_ITEM('',(#84),#85);
#32=APPLICATION_CONTEXT(' ');
#33=PRODUCT_CATEGORY('part','NONE');
#34=PRODUCT_RELATED_PRODUCT_CATEGORY('detail',' ',(#86));
#35=PRODUCT_DEFINITION_SHAPE('NONE','NONE',#87);
#36=ADVANCED_BREP_SHAPE_REPRESENTATION('S51011/14-100-8',(#85,#88),#6);
#39=UNCERTAINTY_MEASURE_WITH_UNIT(LENGTH_MEASURE(0.001),#41,'','');
#41= (CONVERSION_BASED_UNIT('MILLIMETRE',#91)LENGTH_UNIT()NAMED_UNIT(#94));
#42= (NAMED_UNIT(#96)PLANE_ANGLE_UNIT()SI_UNIT($,.RADIAN.));
#43= (NAMED_UNIT(#96)SOLID_ANGLE_UNIT()SI_UNIT($,.STERADIAN.));
#45=PROPERTY_DEFINITION('PdmObjectId','',#87);
#46=REPRESENTATION('',(#102),#6);
#47=GENERAL_PROPERTY('','19_881eb239-e411-4156-a454-71cc61bf7749&2_21_0_33','');
#48=PROPERTY_DEFINITION('CreationDate','',#87);
#49=REPRESENTATION('',(#103),#6);
#50=GENERAL_PROPERTY('','11/09/2019 09:56:42','');
#51=PROPERTY_DEFINITION('Minor Revision','',#87);
#52=REPRESENTATION('',(#104),#6);
#53=GENERAL_PROPERTY('','0','');
#54=PRESENTATION_STYLE_ASSIGNMENT((#105));
#55=ADVANCED_FACE('',(#106,#107),#108,.F.);
#56=PRESENTATION_STYLE_ASSIGNMENT((#109));
#57=ADVANCED_FACE('',(#110),#111,.F.);
#58=PRESENTATION_STYLE_ASSIGNMENT((#112));
#59=ADVANCED_FACE('',(#113,#114),#115,.F.);
#60=PRESENTATION_STYLE_ASSIGNMENT((#116));
#61=ADVANCED_FACE('',(#117),#118,.F.);
#62=PRESENTATION_STYLE_ASSIGNMENT((#119));
#63=ADVANCED_FACE('',(#120,#121),#122,.F.);
#64=PRESENTATION_STYLE_ASSIGNMENT((#123));
#65=ADVANCED_FACE('',(#124,#125),#126,.T.);
#66=PRESENTATION_STYLE_ASSIGNMENT((#127));
#67=ADVANCED_FACE('',(#128),#129,.T.);
#68=PRESENTATION_STYLE_ASSIGNMENT((#130));
#69=ADVANCED_FACE('',(#131),#132,.T.);
#70=PRESENTATION_STYLE_ASSIGNMENT((#133));
#71=ADVANCED_FACE('',(#134,#135),#136,.F.);
#72=PRESENTATION_STYLE_ASSIGNMENT((#137));
#73=ADVANCED_FACE('',(#138,#139),#140,.T.);
#74=PRESENTATION_STYLE_ASSIGNMENT((#141));
#75=ADVANCED_FACE('',(#142,#143),#144,.T.);
#76=PRESENTATION_STYLE_ASSIGNMENT((#145));
#77=ADVANCED_FACE('',(#146,#147),#148,.F.);
#78=PRESENTATION_STYLE_ASSIGNMENT((#149));
#79=ADVANCED_FACE('',(#150,#151),#152,.F.);
#80=PRESENTATION_STYLE_ASSIGNMENT((#153));
#81=ADVANCED_FACE('',(#154,#155),#156,.F.);
#82=PRESENTATION_STYLE_ASSIGNMENT((#157));
#83=ADVANCED_FACE('',(#158),#159,.T.);
#84=PRESENTATION_STYLE_ASSIGNMENT((#160));
#85=MANIFOLD_SOLID_BREP('S51011/14-100-8',#161);
#86=PRODUCT('S51011/14-100-8','S51011 ','PART--DESC',(#162));
#87=PRODUCT_DEFINITION('','NONE',#163,#2);
#88=AXIS2_PLACEMENT_3D('',#164,#165,#166);
#91=LENGTH_MEASURE_WITH_UNIT(LENGTH_MEASURE(1.0),#167);
#94=DIMENSIONAL_EXPONENTS(1.0,0.0,0.0,0.0,0.0,0.0,0.0);
#96=DIMENSIONAL_EXPONENTS(0.0,0.0,0.0,0.0,0.0,0.0,0.0);
#102=DESCRIPTIVE_REPRESENTATION_ITEM('','19_881eb239-e411-4156-a454-71cc61bf7749&2_21_0_33');
#103=DESCRIPTIVE_REPRESENTATION_ITEM('','11/09/2019 09:56:42');
#104=DESCRIPTIVE_REPRESENTATION_ITEM('','0');
#105=SURFACE_STYLE_USAGE(.BOTH.,#168);
#106=FACE_OUTER_BOUND('',#169,.T.);
#107=FACE_BOUND('',#170,.T.);
#108=CONICAL_SURFACE('',#171,4.0,0.523598775601433);
#109=SURFACE_STYLE_USAGE(.BOTH.,#172);
#110=FACE_OUTER_BOUND('',#173,.T.);
#111=PLANE('',#174);
#112=SURFACE_STYLE_USAGE(.BOTH.,#175);
#113=FACE_BOUND('',#176,.T.);
#114=FACE_OUTER_BOUND('',#177,.T.);
#115=CONICAL_SURFACE('',#178,6.94079809994791,1.09955742875643);
#116=SURFACE_STYLE_USAGE(.BOTH.,#179);
#117=FACE_OUTER_BOUND('',#180,.T.);
#118=PLANE('',#181);
#119=SURFACE_STYLE_USAGE(.BOTH.,#182);
#120=FACE_OUTER_BOUND('',#183,.T.);
#121=FACE_OUTER_BOUND('',#184,.T.);
#122=TOROIDAL_SURFACE('',#185,6.85,0.2);
#123=SURFACE_STYLE_USAGE(.BOTH.,#186);
#124=FACE_OUTER_BOUND('',#187,.T.);
#125=FACE_OUTER_BOUND('',#188,.T.);
#126=CYLINDRICAL_SURFACE('',#189,6.65);
#127=SURFACE_STYLE_USAGE(.BOTH.,#190);
#128=FACE_OUTER_BOUND('',#191,.T.);
#129=CONICAL_SURFACE('',#192,10.0,0.785398163397449);
#130=SURFACE_STYLE_USAGE(.BOTH.,#193);
#131=FACE_OUTER_BOUND('',#194,.T.);
#132=CONICAL_SURFACE('',#195,9.5,0.785398163397449);
#133=SURFACE_STYLE_USAGE(.BOTH.,#196);
#134=FACE_BOUND('',#197,.T.);
#135=FACE_OUTER_BOUND('',#198,.T.);
#136=PLANE('',#199);
#137=SURFACE_STYLE_USAGE(.BOTH.,#200);
#138=FACE_OUTER_BOUND('',#201,.T.);
#139=FACE_OUTER_BOUND('',#202,.T.);
#140=CYLINDRICAL_SURFACE('',#203,7.0);
#141=SURFACE_STYLE_USAGE(.BOTH.,#204);
#142=FACE_BOUND('',#205,.T.);
#143=FACE_OUTER_BOUND('',#206,.T.);
#144=CONICAL_SURFACE('',#207,7.0,0.471238898038468);
#145=SURFACE_STYLE_USAGE(.BOTH.,#208);
#146=FACE_OUTER_BOUND('',#209,.T.);
#147=FACE_OUTER_BOUND('',#210,.T.);
#148=TOROIDAL_SURFACE('',#211,6.85,0.2);
#149=SURFACE_STYLE_USAGE(.BOTH.,#212);
#150=FACE_OUTER_BOUND('',#213,.T.);
#151=FACE_OUTER_BOUND('',#214,.T.);
#152=CYLINDRICAL_SURFACE('',#215,4.0);
#153=SURFACE_STYLE_USAGE(.BOTH.,#216);
#154=FACE_BOUND('',#217,.T.);
#155=FACE_OUTER_BOUND('',#218,.T.);
#156=PLANE('',#219);
#157=SURFACE_STYLE_USAGE(.BOTH.,#220);
#158=FACE_OUTER_BOUND('',#221,.T.);
#159=CYLINDRICAL_SURFACE('',#222,10.0);
#160=SURFACE_STYLE_USAGE(.BOTH.,#223);
#161=CLOSED_SHELL('',(#55,#57,#59,#61,#63,#65,#67,#69,#71,#73,#75,#77,#79,#81,#83));
#162=PRODUCT_CONTEXT('',#32,'mechanical');
#163=PRODUCT_DEFINITION_FORMATION_WITH_SPECIFIED_SOURCE('A','NONE',#86,.NOT_KNOWN.);
#164=CARTESIAN_POINT('',(0.0,0.0,0.0));
#165=DIRECTION('',(0.0,0.0,1.0));
#166=DIRECTION('',(1.0,0.0,0.0));
#167= (NAMED_UNIT(#94)LENGTH_UNIT()SI_UNIT(.MILLI.,.METRE.));
#168=SURFACE_SIDE_STYLE('',(#225));
#169=EDGE_LOOP('',(#226));
#170=EDGE_LOOP('',(#227));
#171=AXIS2_PLACEMENT_3D('',#228,#229,#230);
#172=SURFACE_SIDE_STYLE('',(#231));
#173=EDGE_LOOP('',(#232,#233,#234,#235,#236,#237,#238,#239,#240,#241));
#174=AXIS2_PLACEMENT_3D('',#242,#243,#244);
#175=SURFACE_SIDE_STYLE('',(#245));
#176=EDGE_LOOP('',(#246));
#177=EDGE_LOOP('',(#247,#248));
#178=AXIS2_PLACEMENT_3D('',#249,#250,#251);
#179=SURFACE_SIDE_STYLE('',(#252));
#180=EDGE_LOOP('',(#253,#254,#255,#256));
#181=AXIS2_PLACEMENT_3D('',#257,#258,#259);
#182=SURFACE_SIDE_STYLE('',(#260));
#183=EDGE_LOOP('',(#261));
#184=EDGE_LOOP('',(#262));
#185=AXIS2_PLACEMENT_3D('',#263,#264,#265);
#186=SURFACE_SIDE_STYLE('',(#266));
#187=EDGE_LOOP('',(#267));
#188=EDGE_LOOP('',(#268));
#189=AXIS2_PLACEMENT_3D('',#269,#270,#271);
#190=SURFACE_SIDE_STYLE('',(#272));
#191=EDGE_LOOP('',(#273,#274,#275,#276));
#192=AXIS2_PLACEMENT_3D('',#277,#278,#279);
#193=SURFACE_SIDE_STYLE('',(#280));
#194=EDGE_LOOP('',(#281,#282,#283,#284));
#195=AXIS2_PLACEMENT_3D('',#285,#286,#287);
#196=SURFACE_SIDE_STYLE('',(#288));
#197=EDGE_LOOP('',(#289));
#198=EDGE_LOOP('',(#290));
#199=AXIS2_PLACEMENT_3D('',#291,#292,#293);
#200=SURFACE_SIDE_STYLE('',(#294));
#201=EDGE_LOOP('',(#295));
#202=EDGE_LOOP('',(#296));
#203=AXIS2_PLACEMENT_3D('',#297,#298,#299);
#204=SURFACE_SIDE_STYLE('',(#300));
#205=EDGE_LOOP('',(#301));
#206=EDGE_LOOP('',(#302));
#207=AXIS2_PLACEMENT_3D('',#303,#304,#305);
#208=SURFACE_SIDE_STYLE('',(#306));
#209=EDGE_LOOP('',(#307));
#210=EDGE_LOOP('',(#308));
#211=AXIS2_PLACEMENT_3D('',#309,#310,#311);
#212=SURFACE_SIDE_STYLE('',(#312));
#213=EDGE_LOOP('',(#313));
#214=EDGE_LOOP('',(#314));
#215=AXIS2_PLACEMENT_3D('',#315,#316,#317);
#216=SURFACE_SIDE_STYLE('',(#318));
#217=EDGE_LOOP('',(#319));
#218=EDGE_LOOP('',(#320,#321));
#219=AXIS2_PLACEMENT_3D('',#322,#323,#324);
#220=SURFACE_SIDE_STYLE('',(#325));
#221=EDGE_LOOP('',(#326,#327,#328,#329));
#222=AXIS2_PLACEMENT_3D('',#330,#331,#332);
#223=SURFACE_SIDE_STYLE('',(#333));
#225=SURFACE_STYLE_FILL_AREA(#334);
#226=ORIENTED_EDGE('',*,*,#335,.F.);
#227=ORIENTED_EDGE('',*,*,#336,.F.);
#228=CARTESIAN_POINT('',(0.499999999988177,0.0,0.0));
#229=DIRECTION('',(-1.0,0.0,-0.0));
#230=DIRECTION('',(0.0,0.0,1.0));
#231=SURFACE_STYLE_FILL_AREA(#337);
#232=ORIENTED_EDGE('',*,*,#338,.T.);
#233=ORIENTED_EDGE('',*,*,#339,.F.);
#234=ORIENTED_EDGE('',*,*,#340,.T.);
#235=ORIENTED_EDGE('',*,*,#341,.T.);
#236=ORIENTED_EDGE('',*,*,#342,.T.);
#237=ORIENTED_EDGE('',*,*,#343,.F.);
#238=ORIENTED_EDGE('',*,*,#344,.T.);
#239=ORIENTED_EDGE('',*,*,#345,.F.);
#240=ORIENTED_EDGE('',*,*,#346,.T.);
#241=ORIENTED_EDGE('',*,*,#347,.F.);
#242=CARTESIAN_POINT('',(500000.0,-7.0,0.0));
#243=DIRECTION('',(0.0,1.0,-6.12303176911189E-17));
#244=DIRECTION('',(0.0,-6.12303176911189E-17,-1.0));
#245=SURFACE_STYLE_FILL_AREA(#348);
#246=ORIENTED_EDGE('',*,*,#349,.T.);
#247=ORIENTED_EDGE('',*,*,#341,.F.);
#248=ORIENTED_EDGE('',*,*,#350,.F.);
#249=CARTESIAN_POINT('',(3.72179869516249,0.0,0.0));
#250=DIRECTION('',(1.0,-0.0,0.0));
#251=DIRECTION('',(0.0,0.0,-1.0));
#252=SURFACE_STYLE_FILL_AREA(#351);
#253=ORIENTED_EDGE('',*,*,#340,.F.);
#254=ORIENTED_EDGE('',*,*,#352,.T.);
#255=ORIENTED_EDGE('',*,*,#342,.F.);
#256=ORIENTED_EDGE('',*,*,#350,.T.);
#257=CARTESIAN_POINT('',(4.00000000000016,8.74339945173379,0.0));
#258=DIRECTION('',(-1.0,0.0,0.0));
#259=DIRECTION('',(0.0,0.0,1.0));
#260=SURFACE_STYLE_FILL_AREA(#353);
#261=ORIENTED_EDGE('',*,*,#349,.F.);
#262=ORIENTED_EDGE('',*,*,#354,.T.);
#263=CARTESIAN_POINT('',(3.90000000000015,0.0,0.0));
#264=DIRECTION('',(-1.0,0.0,0.0));
#265=DIRECTION('',(0.0,0.0,1.0));
#266=SURFACE_STYLE_FILL_AREA(#355);
#267=ORIENTED_EDGE('',*,*,#354,.F.);
#268=ORIENTED_EDGE('',*,*,#356,.T.);
#269=CARTESIAN_POINT('',(0.0,0.0,0.0));
#270=DIRECTION('',(-1.0,0.0,0.0));
#271=DIRECTION('',(0.0,0.0,1.0));
#272=SURFACE_STYLE_FILL_AREA(#357);
#273=ORIENTED_EDGE('',*,*,#358,.F.);
#274=ORIENTED_EDGE('',*,*,#343,.T.);
#275=ORIENTED_EDGE('',*,*,#352,.F.);
#276=ORIENTED_EDGE('',*,*,#339,.T.);
#277=CARTESIAN_POINT('',(3.50000000000015,0.0,0.0));
#278=DIRECTION('',(-1.0,0.0,-0.0));
#279=DIRECTION('',(0.0,0.0,1.0));
#280=SURFACE_STYLE_FILL_AREA(#359);
#281=ORIENTED_EDGE('',*,*,#360,.F.);
#282=ORIENTED_EDGE('',*,*,#347,.T.);
#283=ORIENTED_EDGE('',*,*,#361,.F.);
#284=ORIENTED_EDGE('',*,*,#345,.T.);
#285=CARTESIAN_POINT('',(0.0,0.0,0.0));
#286=DIRECTION('',(1.0,-0.0,0.0));
#287=DIRECTION('',(0.0,0.0,-1.0));
#288=SURFACE_STYLE_FILL_AREA(#362);
#289=ORIENTED_EDGE('',*,*,#363,.F.);
#290=ORIENTED_EDGE('',*,*,#364,.F.);
#291=CARTESIAN_POINT('',(100.0,3.5,0.0));
#292=DIRECTION('',(-1.0,0.0,0.0));
#293=DIRECTION('',(0.0,0.0,1.0));
#294=SURFACE_STYLE_FILL_AREA(#365);
#295=ORIENTED_EDGE('',*,*,#366,.F.);
#296=ORIENTED_EDGE('',*,*,#364,.T.);
#297=CARTESIAN_POINT('',(0.0,0.0,0.0));
#298=DIRECTION('',(-1.0,0.0,0.0));
#299=DIRECTION('',(0.0,0.0,1.0));
#300=SURFACE_STYLE_FILL_AREA(#367);
#301=ORIENTED_EDGE('',*,*,#368,.F.);
#302=ORIENTED_EDGE('',*,*,#366,.T.);
#303=CARTESIAN_POINT('',(5.00000000000016,0.0,0.0));
#304=DIRECTION('',(1.0,-0.0,0.0));
#305=DIRECTION('',(0.0,0.0,-1.0));
#306=SURFACE_STYLE_FILL_AREA(#369);
#307=ORIENTED_EDGE('',*,*,#356,.F.);
#308=ORIENTED_EDGE('',*,*,#368,.T.);
#309=CARTESIAN_POINT('',(4.26507057125733,0.0,0.0));
#310=DIRECTION('',(-1.0,0.0,0.0));
#311=DIRECTION('',(0.0,0.0,1.0));
#312=SURFACE_STYLE_FILL_AREA(#370);
#313=ORIENTED_EDGE('',*,*,#336,.T.);
#314=ORIENTED_EDGE('',*,*,#363,.T.);
#315=CARTESIAN_POINT('',(500000.0,0.0,0.0));
#316=DIRECTION('',(-1.0,0.0,0.0));
#317=DIRECTION('',(0.0,-1.0,0.0));
#318=SURFACE_STYLE_FILL_AREA(#371);
#319=ORIENTED_EDGE('',*,*,#335,.T.);
#320=ORIENTED_EDGE('',*,*,#346,.F.);
#321=ORIENTED_EDGE('',*,*,#361,.T.);
#322=CARTESIAN_POINT('',(0.0,5.0,0.0));
#323=DIRECTION('',(1.0,0.0,0.0));
#324=DIRECTION('',(0.0,0.0,-1.0));
#325=SURFACE_STYLE_FILL_AREA(#372);
#326=ORIENTED_EDGE('',*,*,#338,.F.);
#327=ORIENTED_EDGE('',*,*,#360,.T.);
#328=ORIENTED_EDGE('',*,*,#344,.F.);
#329=ORIENTED_EDGE('',*,*,#358,.T.);
#330=CARTESIAN_POINT('',(0.0,0.0,0.0));
#331=DIRECTION('',(-1.0,0.0,0.0));
#332=DIRECTION('',(0.0,0.0,1.0));
#333=SURFACE_STYLE_FILL_AREA(#373);
#334=FILL_AREA_STYLE('',(#374));
#335=EDGE_CURVE('',#375,#375,#376,.T.);
#336=EDGE_CURVE('',#377,#377,#378,.T.);
#337=FILL_AREA_STYLE('',(#379));
#338=EDGE_CURVE('',#380,#381,#382,.F.);
#339=EDGE_CURVE('',#383,#381,#384,.T.);
#340=EDGE_CURVE('',#383,#385,#386,.T.);
#341=EDGE_CURVE('',#385,#387,#388,.T.);
#342=EDGE_CURVE('',#387,#389,#390,.T.);
#343=EDGE_CURVE('',#391,#389,#392,.T.);
#344=EDGE_CURVE('',#391,#393,#394,.T.);
#345=EDGE_CURVE('',#395,#393,#396,.T.);
#346=EDGE_CURVE('',#395,#397,#398,.T.);
#347=EDGE_CURVE('',#380,#397,#399,.T.);
#348=FILL_AREA_STYLE('',(#400));
#349=EDGE_CURVE('',#401,#401,#402,.T.);
#350=EDGE_CURVE('',#387,#385,#403,.T.);
#351=FILL_AREA_STYLE('',(#404));
#352=EDGE_CURVE('',#383,#389,#405,.F.);
#353=FILL_AREA_STYLE('',(#406));
#354=EDGE_CURVE('',#407,#407,#408,.T.);
#355=FILL_AREA_STYLE('',(#409));
#356=EDGE_CURVE('',#410,#410,#411,.T.);
#357=FILL_AREA_STYLE('',(#412));
#358=EDGE_CURVE('',#391,#381,#413,.T.);
#359=FILL_AREA_STYLE('',(#414));
#360=EDGE_CURVE('',#380,#393,#415,.T.);
#361=EDGE_CURVE('',#395,#397,#416,.F.);
#362=FILL_AREA_STYLE('',(#417));
#363=EDGE_CURVE('',#418,#418,#419,.F.);
#364=EDGE_CURVE('',#420,#420,#421,.T.);
#365=FILL_AREA_STYLE('',(#422));
#366=EDGE_CURVE('',#423,#423,#424,.T.);
#367=FILL_AREA_STYLE('',(#425));
#368=EDGE_CURVE('',#426,#426,#427,.T.);
#369=FILL_AREA_STYLE('',(#428));
#370=FILL_AREA_STYLE('',(#429));
#371=FILL_AREA_STYLE('',(#430));
#372=FILL_AREA_STYLE('',(#431));
#373=FILL_AREA_STYLE('',(#432));
#374=FILL_AREA_STYLE_COLOUR('',#433);
#375=VERTEX_POINT('',#434);
#376=CIRCLE('',#435,4.28867513459007);
#377=VERTEX_POINT('',#436);
#378=CIRCLE('',#437,4.0);
#379=FILL_AREA_STYLE_COLOUR('',#438);
#380=VERTEX_POINT('',#439);
#381=VERTEX_POINT('',#440);
#382=LINE('',#441,#442);
#383=VERTEX_POINT('',#443);
#384=B_SPLINE_CURVE_WITH_KNOTS('',3,(#444,#445,#446,#447),.UNSPECIFIED.,.F.,.F.,(4,4),(0.0319345325074604,0.0328010101641679),.UNSPECIFIED.);
#385=VERTEX_POINT('',#448);
#386=LINE('',#449,#450);
#387=VERTEX_POINT('',#451);
#388=B_SPLINE_CURVE_WITH_KNOTS('',3,(#452,#453,#454,#455,#456,#457,#458,#459),.UNSPECIFIED.,.F.,.F.,(4,2,2,4),(0.00816255062052022,0.0108300519418016,0.0121638026024423,0.013497553263083),.UNSPECIFIED.);
#389=VERTEX_POINT('',#460);
#390=LINE('',#461,#462);
#391=VERTEX_POINT('',#463);
#392=B_SPLINE_CURVE_WITH_KNOTS('',3,(#464,#465,#466,#467),.UNSPECIFIED.,.F.,.F.,(4,4),(0.0172031809395086,0.018082881442905),.UNSPECIFIED.);
#393=VERTEX_POINT('',#468);
#394=LINE('',#469,#470);
#395=VERTEX_POINT('',#471);
#396=B_SPLINE_CURVE_WITH_KNOTS('',3,(#472,#473,#474,#475),.UNSPECIFIED.,.F.,.F.,(4,4),(0.0319345325074604,0.0328010101641679),.UNSPECIFIED.);
#397=VERTEX_POINT('',#476);
#398=LINE('',#477,#478);
#399=B_SPLINE_CURVE_WITH_KNOTS('',3,(#479,#480,#481,#482),.UNSPECIFIED.,.F.,.F.,(4,4),(0.0172031809395086,0.018082881442905),.UNSPECIFIED.);
#400=FILL_AREA_STYLE_COLOUR('',#483);
#401=VERTEX_POINT('',#484);
#402=CIRCLE('',#485,6.94079809994791);
#403=CIRCLE('',#486,7.48679890346757);
#404=FILL_AREA_STYLE_COLOUR('',#487);
#405=CIRCLE('',#488,9.5);
#406=FILL_AREA_STYLE_COLOUR('',#489);
#407=VERTEX_POINT('',#490);
#408=CIRCLE('',#491,6.65);
#409=FILL_AREA_STYLE_COLOUR('',#492);
#410=VERTEX_POINT('',#493);
#411=CIRCLE('',#494,6.65);
#412=FILL_AREA_STYLE_COLOUR('',#495);
#413=CIRCLE('',#496,10.0);
#414=FILL_AREA_STYLE_COLOUR('',#497);
#415=CIRCLE('',#498,10.0);
#416=CIRCLE('',#499,9.5);
#417=FILL_AREA_STYLE_COLOUR('',#500);
#418=VERTEX_POINT('',#501);
#419=CIRCLE('',#502,4.0);
#420=VERTEX_POINT('',#503);
#421=CIRCLE('',#504,7.0);
#422=FILL_AREA_STYLE_COLOUR('',#505);
#423=VERTEX_POINT('',#506);
#424=CIRCLE('',#507,7.0);
#425=FILL_AREA_STYLE_COLOUR('',#508);
#426=VERTEX_POINT('',#509);
#427=CIRCLE('',#510,6.67179869516233);
#428=FILL_AREA_STYLE_COLOUR('',#511);
#429=FILL_AREA_STYLE_COLOUR('',#512);
#430=FILL_AREA_STYLE_COLOUR('',#513);
#431=FILL_AREA_STYLE_COLOUR('',#514);
#432=FILL_AREA_STYLE_COLOUR('',#515);
#433=COLOUR_RGB('',0.752941191196442,0.752941191196442,0.752941191196442);
#434=CARTESIAN_POINT('',(0.0,0.0,-4.28867513459007));
#435=AXIS2_PLACEMENT_3D('',#516,#517,#518);
#436=CARTESIAN_POINT('',(0.499999999988177,0.0,4.0));
#437=AXIS2_PLACEMENT_3D('',#519,#520,#521);
#438=COLOUR_RGB('',0.752941191196442,0.752941191196442,0.752941191196442);
#439=CARTESIAN_POINT('',(0.5,-7.0,-7.14142842854285));
#440=CARTESIAN_POINT('',(3.50000000000015,-7.0,-7.14142842854285));
#441=CARTESIAN_POINT('',(0.0,-7.0,-7.14142842854285));
#442=VECTOR('',#522,1.0);
#443=CARTESIAN_POINT('',(4.00000000000016,-7.0,-6.42261628933256));
#444=CARTESIAN_POINT('',(4.0000000000001,-7.0,-6.42261628933266));
#445=CARTESIAN_POINT('',(3.83630120161399,-7.0,-6.66475103857043));
#446=CARTESIAN_POINT('',(3.66942924366367,-7.0,-6.90418003298891));
#447=CARTESIAN_POINT('',(3.50000000000017,-7.0,-7.14142842854283));
#448=CARTESIAN_POINT('',(4.00000000000016,-7.0,-2.6555899195778));
#449=CARTESIAN_POINT('',(4.0000000000191,-7.0,0.0));
#450=VECTOR('',#523,1.0);
#451=CARTESIAN_POINT('',(4.00000000000015,-7.0,2.6555899195778));
#452=CARTESIAN_POINT('',(4.00000000000016,-7.0,-2.65558991957779));
#453=CARTESIAN_POINT('',(3.84054262309475,-7.0,-1.77329477045472));
#454=CARTESIAN_POINT('',(3.75221128240012,-7.0,-0.889495715254294));
#455=CARTESIAN_POINT('',(3.75184051620278,-7.0,0.438996576758702));
#456=CARTESIAN_POINT('',(3.77331267056793,-7.0,0.882283966367663));
#457=CARTESIAN_POINT('',(3.8574716115802,-7.0,1.76973019771854));
#458=CARTESIAN_POINT('',(3.92055837240089,-7.0,2.21603068419128));
#459=CARTESIAN_POINT('',(4.00000000000016,-7.0,2.65558991957781));
#460=CARTESIAN_POINT('',(4.00000000000016,-7.0,6.42261628933256));
#461=CARTESIAN_POINT('',(4.0000000000191,-7.0,0.0));
#462=VECTOR('',#524,1.0);
#463=CARTESIAN_POINT('',(3.50000000000016,-7.0,7.14142842854286));
#464=CARTESIAN_POINT('',(3.50000000000013,-7.0,7.14142842854288));
#465=CARTESIAN_POINT('',(3.66962547593619,-7.0,6.90390525284585));
#466=CARTESIAN_POINT('',(3.83650439785068,-7.0,6.66445048126456));
#467=CARTESIAN_POINT('',(4.00000000000015,-7.0,6.42261628933258));
#468=CARTESIAN_POINT('',(0.5,-7.0,7.14142842854285));
#469=CARTESIAN_POINT('',(0.0,-7.0,7.14142842854285));
#470=VECTOR('',#525,1.0);
#471=CARTESIAN_POINT('',(0.0,-7.0,6.42261628933256));
#472=CARTESIAN_POINT('',(5.76857153834554E-14,-7.0,6.42261628933266));
#473=CARTESIAN_POINT('',(0.163698798386164,-7.0,6.66475103857043));
#474=CARTESIAN_POINT('',(0.330570756336489,-7.0,6.90418003298891));
#475=CARTESIAN_POINT('',(0.499999999999986,-7.0,7.14142842854283));
#476=CARTESIAN_POINT('',(0.0,-7.0,-6.42261628933256));
#477=CARTESIAN_POINT('',(0.0,-7.0,0.0));
#478=VECTOR('',#526,1.0);
#479=CARTESIAN_POINT('',(0.500000000000023,-7.0,-7.14142842854288));
#480=CARTESIAN_POINT('',(0.330374524063965,-7.0,-6.90390525284585));
#481=CARTESIAN_POINT('',(0.163495602149478,-7.0,-6.66445048126456));
#482=CARTESIAN_POINT('',(1.00695410609121E-14,-7.0,-6.42261628933258));
#483=COLOUR_RGB('',0.752941191196442,0.752941191196442,0.752941191196442);
#484=CARTESIAN_POINT('',(3.72179869516249,0.0,6.94079809994791));
#485=AXIS2_PLACEMENT_3D('',#527,#528,#529);
#486=AXIS2_PLACEMENT_3D('',#530,#531,#532);
#487=COLOUR_RGB('',0.752941191196442,0.752941191196442,0.752941191196442);
#488=AXIS2_PLACEMENT_3D('',#533,#534,#535);
#489=COLOUR_RGB('',0.752941191196442,0.752941191196442,0.752941191196442);
#490=CARTESIAN_POINT('',(3.90000000000015,0.0,6.65));
#491=AXIS2_PLACEMENT_3D('',#536,#537,#538);
#492=COLOUR_RGB('',0.752941191196442,0.752941191196442,0.752941191196442);
#493=CARTESIAN_POINT('',(4.26507057125733,0.0,6.65));
#494=AXIS2_PLACEMENT_3D('',#539,#540,#541);
#495=COLOUR_RGB('',0.752941191196442,0.752941191196442,0.752941191196442);
#496=AXIS2_PLACEMENT_3D('',#542,#543,#544);
#497=COLOUR_RGB('',0.752941191196442,0.752941191196442,0.752941191196442);
#498=AXIS2_PLACEMENT_3D('',#545,#546,#547);
#499=AXIS2_PLACEMENT_3D('',#548,#549,#550);
#500=COLOUR_RGB('',0.752941191196442,0.752941191196442,0.752941191196442);
#501=CARTESIAN_POINT('',(100.000000000023,-9.79717439317883E-16,4.0));
#502=AXIS2_PLACEMENT_3D('',#551,#552,#553);
#503=CARTESIAN_POINT('',(100.0,0.0,7.0));
#504=AXIS2_PLACEMENT_3D('',#554,#555,#556);
#505=COLOUR_RGB('',0.752941191196442,0.752941191196442,0.752941191196442);
#506=CARTESIAN_POINT('',(5.00000000000016,0.0,7.0));
#507=AXIS2_PLACEMENT_3D('',#557,#558,#559);
#508=COLOUR_RGB('',0.752941191196442,0.752941191196442,0.752941191196442);
#509=CARTESIAN_POINT('',(4.35586867120524,0.0,6.67179869516233));
#510=AXIS2_PLACEMENT_3D('',#560,#561,#562);
#511=COLOUR_RGB('',0.752941191196442,0.752941191196442,0.752941191196442);
#512=COLOUR_RGB('',0.752941191196442,0.752941191196442,0.752941191196442);
#513=COLOUR_RGB('',0.752941191196442,0.752941191196442,0.752941191196442);
#514=COLOUR_RGB('',0.752941191196442,0.752941191196442,0.752941191196442);
#515=COLOUR_RGB('',0.752941191196442,0.752941191196442,0.752941191196442);
#516=CARTESIAN_POINT('',(0.0,0.0,0.0));
#517=DIRECTION('',(1.0,0.0,0.0));
#518=DIRECTION('',(0.0,0.0,-1.0));
#519=CARTESIAN_POINT('',(0.499999999988177,0.0,0.0));
#520=DIRECTION('',(-1.0,0.0,0.0));
#521=DIRECTION('',(0.0,0.0,1.0));
#522=DIRECTION('',(-1.0,0.0,0.0));
#523=DIRECTION('',(0.0,6.12303176911189E-17,1.0));
#524=DIRECTION('',(0.0,6.12303176911189E-17,1.0));
#525=DIRECTION('',(-1.0,0.0,0.0));
#526=DIRECTION('',(0.0,-6.12303176911189E-17,-1.0));
#527=CARTESIAN_POINT('',(3.72179869516249,0.0,0.0));
#528=DIRECTION('',(-1.0,0.0,0.0));
#529=DIRECTION('',(0.0,0.0,1.0));
#530=CARTESIAN_POINT('',(4.00000000000016,0.0,0.0));
#531=DIRECTION('',(-1.0,0.0,0.0));
#532=DIRECTION('',(0.0,0.0,1.0));
#533=CARTESIAN_POINT('',(4.00000000000016,0.0,0.0));
#534=DIRECTION('',(-1.0,0.0,0.0));
#535=DIRECTION('',(0.0,0.0,1.0));
#536=CARTESIAN_POINT('',(3.90000000000015,0.0,0.0));
#537=DIRECTION('',(-1.0,0.0,0.0));
#538=DIRECTION('',(0.0,0.0,1.0));
#539=CARTESIAN_POINT('',(4.26507057125733,0.0,0.0));
#540=DIRECTION('',(-1.0,0.0,0.0));
#541=DIRECTION('',(0.0,0.0,1.0));
#542=CARTESIAN_POINT('',(3.50000000000015,0.0,0.0));
#543=DIRECTION('',(-1.0,0.0,0.0));
#544=DIRECTION('',(0.0,0.0,1.0));
#545=CARTESIAN_POINT('',(0.5,0.0,0.0));
#546=DIRECTION('',(1.0,0.0,0.0));
#547=DIRECTION('',(0.0,0.0,-1.0));
#548=CARTESIAN_POINT('',(0.0,0.0,0.0));
#549=DIRECTION('',(1.0,0.0,0.0));
#550=DIRECTION('',(0.0,0.0,-1.0));
#551=CARTESIAN_POINT('',(100.000000000023,0.0,0.0));
#552=DIRECTION('',(-1.0,0.0,0.0));
#553=DIRECTION('',(0.0,0.0,1.0));
#554=CARTESIAN_POINT('',(100.0,0.0,0.0));
#555=DIRECTION('',(-1.0,0.0,0.0));
#556=DIRECTION('',(0.0,0.0,1.0));
#557=CARTESIAN_POINT('',(5.00000000000016,0.0,0.0));
#558=DIRECTION('',(-1.0,0.0,0.0));
#559=DIRECTION('',(0.0,0.0,1.0));
#560=CARTESIAN_POINT('',(4.35586867120524,0.0,0.0));
#561=DIRECTION('',(-1.0,0.0,0.0));
#562=DIRECTION('',(0.0,0.0,1.0));
ENDSEC;
END-ISO-10303-21;
