ISO-10303-21;
HEADER;
FILE_DESCRIPTION (( 'STEP AP214' ),
    '1' );
FILE_NAME ('TL040620.STEP',
    '2013-06-26T07:50:11',
    ( '' ),
    ( '' ),
    'SwSTEP 2.0',
    'SolidWorks 2011',
    '' );
FILE_SCHEMA (( 'AUTOMOTIVE_DESIGN' ));
ENDSEC;

DATA;
#1 = CIRCLE ( 'NONE', #9, 2.999999999999999100 ) ;
#2 = VECTOR ( 'NONE', #96, 1000.000000000000000 ) ;
#3 = CIRCLE ( 'NONE', #4, 2.999999999999999100 ) ;
#4 = AXIS2_PLACEMENT_3D ( 'NONE', #157, #135, #151 ) ;
#5 = VECTOR ( 'NONE', #133, 1000.000000000000000 ) ;
#6 = CLOSED_SHELL ( 'NONE', ( #202, #201, #198, #197, #205, #206 ) ) ;
#7 = CIRCLE ( 'NONE', #8, 2.000000000000000000 ) ;
#8 = AXIS2_PLACEMENT_3D ( 'NONE', #164, #158, #165 ) ;
#9 = AXIS2_PLACEMENT_3D ( 'NONE', #159, #141, #142 ) ;
#10 = CIRCLE ( 'NONE', #11, 2.000000000000000000 ) ;
#11 = AXIS2_PLACEMENT_3D ( 'NONE', #127, #145, #146 ) ;
#12 = VECTOR ( 'NONE', #160, 1000.000000000000000 ) ;
#13 = AXIS2_PLACEMENT_3D ( 'NONE', #163, #124, #184 ) ;
#14 = AXIS2_PLACEMENT_3D ( 'NONE', #150, #126, #152 ) ;
#15 = PRESENTATION_LAYER_ASSIGNMENT (  '', '', ( #40 ) ) ;
#16 = CIRCLE ( 'NONE', #35, 2.999999999999999100 ) ;
#17 = COLOUR_RGB ( '',0.9882352941176471000, 0.7372549019607843600, 0.5176470588235293500 ) ;
#18 =( GEOMETRIC_REPRESENTATION_CONTEXT ( 3 ) GLOBAL_UNCERTAINTY_ASSIGNED_CONTEXT ( ( #210 ) ) GLOBAL_UNIT_ASSIGNED_CONTEXT ( ( #42, #61, #68 ) ) REPRESENTATION_CONTEXT ( 'NONE', 'WORKASPACE' ) );
#19 = CIRCLE ( 'NONE', #39, 2.000000000000000000 ) ;
#20 = AXIS2_PLACEMENT_3D ( 'NONE', #153, #143, #147 ) ;
#21 =( GEOMETRIC_REPRESENTATION_CONTEXT ( 3 ) GLOBAL_UNCERTAINTY_ASSIGNED_CONTEXT ( ( #207 ) ) GLOBAL_UNIT_ASSIGNED_CONTEXT ( ( #53, #57, #59 ) ) REPRESENTATION_CONTEXT ( 'NONE', 'WORKASPACE' ) );
#22 = PRESENTATION_LAYER_ASSIGNMENT (  '', '', ( #30 ) ) ;
#23 = AXIS2_PLACEMENT_3D ( 'NONE', #177, #169, #66 ) ;
#24 = COLOUR_RGB ( '',0.9882352941176471000, 0.7372549019607843600, 0.5176470588235293500 ) ;
#25 = AXIS2_PLACEMENT_3D ( 'NONE', #137, #138, #130 ) ;
#26 = PRODUCT_DEFINITION_FORMATION_WITH_SPECIFIED_SOURCE ( 'ANY', '', #185, .NOT_KNOWN. ) ;
#27 = AXIS2_PLACEMENT_3D ( 'NONE', #168, #154, #176 ) ;
#28 = MECHANICAL_DESIGN_GEOMETRIC_PRESENTATION_REPRESENTATION (  '', ( #40 ), #32 ) ;
#29 = AXIS2_PLACEMENT_3D ( 'NONE', #64, #45, #46 ) ;
#30 = STYLED_ITEM ( 'NONE', ( #41 ), #212 ) ;
#31 = MECHANICAL_DESIGN_GEOMETRIC_PRESENTATION_REPRESENTATION (  '', ( #30 ), #18 ) ;
#32 =( GEOMETRIC_REPRESENTATION_CONTEXT ( 3 ) GLOBAL_UNCERTAINTY_ASSIGNED_CONTEXT ( ( #209 ) ) GLOBAL_UNIT_ASSIGNED_CONTEXT ( ( #50, #56, #63 ) ) REPRESENTATION_CONTEXT ( 'NONE', 'WORKASPACE' ) );
#33 = CIRCLE ( 'NONE', #13, 2.999999999999999100 ) ;
#34 = AXIS2_PLACEMENT_3D ( 'NONE', #175, #179, #171 ) ;
#35 = AXIS2_PLACEMENT_3D ( 'NONE', #166, #167, #128 ) ;
#36 = VECTOR ( 'NONE', #155, 1000.000000000000000 ) ;
#37 = AXIS2_PLACEMENT_3D ( 'NONE', #172, #178, #181 ) ;
#38 = CIRCLE ( 'NONE', #14, 2.000000000000000000 ) ;
#39 = AXIS2_PLACEMENT_3D ( 'NONE', #139, #161, #129 ) ;
#40 = STYLED_ITEM ( 'NONE', ( #49 ), #186 ) ;
#41 = PRESENTATION_STYLE_ASSIGNMENT (( #69 ) ) ;
#42 =( LENGTH_UNIT ( ) NAMED_UNIT ( * ) SI_UNIT ( .MILLI., .METRE. ) );
#43 = PRODUCT_CONTEXT ( 'NONE', #214, 'mechanical' ) ;
#44 = FILL_AREA_STYLE_COLOUR ( '', #24 ) ;
#45 = DIRECTION ( 'NONE',  ( 0.0000000000000000000, 0.0000000000000000000, 1.000000000000000000 ) ) ;
#46 = DIRECTION ( 'NONE',  ( 1.000000000000000000, 0.0000000000000000000, 0.0000000000000000000 ) ) ;
#47 = SHAPE_DEFINITION_REPRESENTATION ( #208, #186 ) ;
#48 = SURFACE_STYLE_FILL_AREA ( #60 ) ;
#49 = PRESENTATION_STYLE_ASSIGNMENT (( #51 ) ) ;
#50 =( LENGTH_UNIT ( ) NAMED_UNIT ( * ) SI_UNIT ( .MILLI., .METRE. ) );
#51 = SURFACE_STYLE_USAGE ( .BOTH. , #54 ) ;
#52 = SURFACE_STYLE_FILL_AREA ( #62 ) ;
#53 =( LENGTH_UNIT ( ) NAMED_UNIT ( * ) SI_UNIT ( .MILLI., .METRE. ) );
#54 = SURFACE_SIDE_STYLE ('',( #52 ) ) ;
#55 = APPLICATION_PROTOCOL_DEFINITION ( 'draft international standard', 'automotive_design', 1998, #214 ) ;
#56 =( NAMED_UNIT ( * ) PLANE_ANGLE_UNIT ( ) SI_UNIT ( $, .RADIAN. ) );
#57 =( NAMED_UNIT ( * ) PLANE_ANGLE_UNIT ( ) SI_UNIT ( $, .RADIAN. ) );
#58 = SURFACE_SIDE_STYLE ('',( #48 ) ) ;
#59 =( NAMED_UNIT ( * ) SI_UNIT ( $, .STERADIAN. ) SOLID_ANGLE_UNIT ( ) );
#60 = FILL_AREA_STYLE ('',( #67 ) ) ;
#61 =( NAMED_UNIT ( * ) PLANE_ANGLE_UNIT ( ) SI_UNIT ( $, .RADIAN. ) );
#62 = FILL_AREA_STYLE ('',( #44 ) ) ;
#63 =( NAMED_UNIT ( * ) SI_UNIT ( $, .STERADIAN. ) SOLID_ANGLE_UNIT ( ) );
#64 = CARTESIAN_POINT ( 'NONE',  ( 0.0000000000000000000, 0.0000000000000000000, 0.0000000000000000000 ) ) ;
#65 = APPLICATION_PROTOCOL_DEFINITION ( 'draft international standard', 'automotive_design', 1998, #213 ) ;
#66 = DIRECTION ( 'NONE',  ( 0.0000000000000000000, 0.0000000000000000000, -1.000000000000000000 ) ) ;
#67 = FILL_AREA_STYLE_COLOUR ( '', #17 ) ;
#68 =( NAMED_UNIT ( * ) SI_UNIT ( $, .STERADIAN. ) SOLID_ANGLE_UNIT ( ) );
#69 = SURFACE_STYLE_USAGE ( .BOTH. , #58 ) ;
#70 = ORIENTED_EDGE ( 'NONE', *, *, #196, .T. ) ;
#71 = CARTESIAN_POINT ( 'NONE',  ( 0.0000000000000000000, 195.0000000000000000, -2.000000000000000000 ) ) ;
#72 = CARTESIAN_POINT ( 'NONE',  ( 2.449293598294706400E-016, 195.0000000000000000, 2.000000000000000000 ) ) ;
#73 = EDGE_LOOP ( 'NONE', ( #101, #111, #87, #78 ) ) ;
#74 = VERTEX_POINT ( 'NONE', #93 ) ;
#75 = EDGE_LOOP ( 'NONE', ( #88, #109, #89, #94 ) ) ;
#76 = VERTEX_POINT ( 'NONE', #71 ) ;
#77 = ORIENTED_EDGE ( 'NONE', *, *, #189, .T. ) ;
#78 = ORIENTED_EDGE ( 'NONE', *, *, #199, .F. ) ;
#79 = ORIENTED_EDGE ( 'NONE', *, *, #188, .F. ) ;
#80 = ORIENTED_EDGE ( 'NONE', *, *, #199, .T. ) ;
#81 = ORIENTED_EDGE ( 'NONE', *, *, #194, .F. ) ;
#82 = ORIENTED_EDGE ( 'NONE', *, *, #192, .T. ) ;
#83 = VERTEX_POINT ( 'NONE', #112 ) ;
#84 = ORIENTED_EDGE ( 'NONE', *, *, #195, .F. ) ;
#85 = VERTEX_POINT ( 'NONE', #115 ) ;
#86 = ORIENTED_EDGE ( 'NONE', *, *, #187, .F. ) ;
#87 = ORIENTED_EDGE ( 'NONE', *, *, #188, .T. ) ;
#88 = ORIENTED_EDGE ( 'NONE', *, *, #189, .F. ) ;
#89 = ORIENTED_EDGE ( 'NONE', *, *, #190, .T. ) ;
#90 = CARTESIAN_POINT ( 'NONE',  ( 3.673940397442058900E-016, 195.0000000000000000, 2.999999999999999100 ) ) ;
#91 = EDGE_LOOP ( 'NONE', ( #123, #84 ) ) ;
#92 = ORIENTED_EDGE ( 'NONE', *, *, #194, .T. ) ;
#93 = CARTESIAN_POINT ( 'NONE',  ( 0.0000000000000000000, 0.0000000000000000000, -2.999999999999999100 ) ) ;
#94 = ORIENTED_EDGE ( 'NONE', *, *, #196, .F. ) ;
#95 = CARTESIAN_POINT ( 'NONE',  ( 2.449293598294706400E-016, 195.0000000000000000, 2.000000000000000000 ) ) ;
#96 = DIRECTION ( 'NONE',  ( -0.0000000000000000000, -1.000000000000000000, -0.0000000000000000000 ) ) ;
#97 = VERTEX_POINT ( 'NONE', #110 ) ;
#98 = VERTEX_POINT ( 'NONE', #114 ) ;
#99 = ORIENTED_EDGE ( 'NONE', *, *, #190, .F. ) ;
#100 = LINE ( 'NONE', #140, #5 ) ;
#101 = ORIENTED_EDGE ( 'NONE', *, *, #200, .F. ) ;
#102 = EDGE_LOOP ( 'NONE', ( #103, #79 ) ) ;
#103 = ORIENTED_EDGE ( 'NONE', *, *, #193, .F. ) ;
#104 = ORIENTED_EDGE ( 'NONE', *, *, #192, .F. ) ;
#105 = ORIENTED_EDGE ( 'NONE', *, *, #193, .T. ) ;
#106 = EDGE_LOOP ( 'NONE', ( #92, #120 ) ) ;
#107 = EDGE_LOOP ( 'NONE', ( #113, #77, #104, #99 ) ) ;
#108 = VERTEX_POINT ( 'NONE', #116 ) ;
#109 = ORIENTED_EDGE ( 'NONE', *, *, #195, .T. ) ;
#110 = CARTESIAN_POINT ( 'NONE',  ( 3.673940397442058900E-016, 195.0000000000000000, 2.999999999999999100 ) ) ;
#111 = ORIENTED_EDGE ( 'NONE', *, *, #187, .T. ) ;
#112 = CARTESIAN_POINT ( 'NONE',  ( 0.0000000000000000000, 0.0000000000000000000, -2.000000000000000000 ) ) ;
#113 = ORIENTED_EDGE ( 'NONE', *, *, #191, .T. ) ;
#114 = CARTESIAN_POINT ( 'NONE',  ( 0.0000000000000000000, 195.0000000000000000, -2.999999999999999100 ) ) ;
#115 = CARTESIAN_POINT ( 'NONE',  ( 3.673940397442058900E-016, 0.0000000000000000000, 2.999999999999999100 ) ) ;
#116 = CARTESIAN_POINT ( 'NONE',  ( 2.449293598294706400E-016, 0.0000000000000000000, 2.000000000000000000 ) ) ;
#117 = LINE ( 'NONE', #90, #2 ) ;
#118 = EDGE_LOOP ( 'NONE', ( #82, #70 ) ) ;
#119 = VERTEX_POINT ( 'NONE', #72 ) ;
#120 = ORIENTED_EDGE ( 'NONE', *, *, #200, .T. ) ;
#121 = LINE ( 'NONE', #95, #12 ) ;
#122 = EDGE_LOOP ( 'NONE', ( #86, #81, #80, #105 ) ) ;
#123 = ORIENTED_EDGE ( 'NONE', *, *, #191, .F. ) ;
#124 = DIRECTION ( 'NONE',  ( 0.0000000000000000000, 1.000000000000000000, 0.0000000000000000000 ) ) ;
#125 = PLANE ( 'NONE',  #20 ) ;
#126 = DIRECTION ( 'NONE',  ( 0.0000000000000000000, 1.000000000000000000, 0.0000000000000000000 ) ) ;
#127 = CARTESIAN_POINT ( 'NONE',  ( 0.0000000000000000000, 0.0000000000000000000, 0.0000000000000000000 ) ) ;
#128 = DIRECTION ( 'NONE',  ( 0.0000000000000000000, 0.0000000000000000000, 1.000000000000000000 ) ) ;
#129 = DIRECTION ( 'NONE',  ( 0.0000000000000000000, 0.0000000000000000000, 1.000000000000000000 ) ) ;
#130 = DIRECTION ( 'NONE',  ( 0.0000000000000000000, -0.0000000000000000000, 1.000000000000000000 ) ) ;
#131 = FACE_OUTER_BOUND ( 'NONE', #106, .T. ) ;
#132 = FACE_BOUND ( 'NONE', #91, .T. ) ;
#133 = DIRECTION ( 'NONE',  ( -0.0000000000000000000, -1.000000000000000000, -0.0000000000000000000 ) ) ;
#134 = PLANE ( 'NONE',  #25 ) ;
#135 = DIRECTION ( 'NONE',  ( 0.0000000000000000000, 1.000000000000000000, 0.0000000000000000000 ) ) ;
#136 = FACE_OUTER_BOUND ( 'NONE', #102, .T. ) ;
#137 = CARTESIAN_POINT ( 'NONE',  ( 0.0000000000000000000, 195.0000000000000000, 0.0000000000000000000 ) ) ;
#138 = DIRECTION ( 'NONE',  ( 0.0000000000000000000, 1.000000000000000000, 0.0000000000000000000 ) ) ;
#139 = CARTESIAN_POINT ( 'NONE',  ( 0.0000000000000000000, 195.0000000000000000, 0.0000000000000000000 ) ) ;
#140 = CARTESIAN_POINT ( 'NONE',  ( 0.0000000000000000000, 195.0000000000000000, -2.000000000000000000 ) ) ;
#141 = DIRECTION ( 'NONE',  ( 0.0000000000000000000, 1.000000000000000000, 0.0000000000000000000 ) ) ;
#142 = DIRECTION ( 'NONE',  ( 0.0000000000000000000, 0.0000000000000000000, 1.000000000000000000 ) ) ;
#143 = DIRECTION ( 'NONE',  ( 0.0000000000000000000, 1.000000000000000000, 0.0000000000000000000 ) ) ;
#144 = FACE_BOUND ( 'NONE', #118, .T. ) ;
#145 = DIRECTION ( 'NONE',  ( 0.0000000000000000000, 1.000000000000000000, 0.0000000000000000000 ) ) ;
#146 = DIRECTION ( 'NONE',  ( 0.0000000000000000000, 0.0000000000000000000, 1.000000000000000000 ) ) ;
#147 = DIRECTION ( 'NONE',  ( 0.0000000000000000000, -0.0000000000000000000, 1.000000000000000000 ) ) ;
#148 = LINE ( 'NONE', #149, #36 ) ;
#149 = CARTESIAN_POINT ( 'NONE',  ( 0.0000000000000000000, 195.0000000000000000, -2.999999999999999100 ) ) ;
#150 = CARTESIAN_POINT ( 'NONE',  ( 0.0000000000000000000, 0.0000000000000000000, 0.0000000000000000000 ) ) ;
#151 = DIRECTION ( 'NONE',  ( 0.0000000000000000000, 0.0000000000000000000, 1.000000000000000000 ) ) ;
#152 = DIRECTION ( 'NONE',  ( 0.0000000000000000000, 0.0000000000000000000, 1.000000000000000000 ) ) ;
#153 = CARTESIAN_POINT ( 'NONE',  ( 0.0000000000000000000, 0.0000000000000000000, 0.0000000000000000000 ) ) ;
#154 = DIRECTION ( 'NONE',  ( -0.0000000000000000000, -1.000000000000000000, -0.0000000000000000000 ) ) ;
#155 = DIRECTION ( 'NONE',  ( -0.0000000000000000000, -1.000000000000000000, -0.0000000000000000000 ) ) ;
#156 = FACE_OUTER_BOUND ( 'NONE', #73, .T. ) ;
#157 = CARTESIAN_POINT ( 'NONE',  ( 0.0000000000000000000, 0.0000000000000000000, 0.0000000000000000000 ) ) ;
#158 = DIRECTION ( 'NONE',  ( 0.0000000000000000000, 1.000000000000000000, 0.0000000000000000000 ) ) ;
#159 = CARTESIAN_POINT ( 'NONE',  ( 0.0000000000000000000, 0.0000000000000000000, 0.0000000000000000000 ) ) ;
#160 = DIRECTION ( 'NONE',  ( -0.0000000000000000000, -1.000000000000000000, -0.0000000000000000000 ) ) ;
#161 = DIRECTION ( 'NONE',  ( 0.0000000000000000000, 1.000000000000000000, 0.0000000000000000000 ) ) ;
#162 = CYLINDRICAL_SURFACE ( 'NONE', #27, 2.999999999999999100 ) ;
#163 = CARTESIAN_POINT ( 'NONE',  ( 0.0000000000000000000, 195.0000000000000000, 0.0000000000000000000 ) ) ;
#164 = CARTESIAN_POINT ( 'NONE',  ( 0.0000000000000000000, 195.0000000000000000, 0.0000000000000000000 ) ) ;
#165 = DIRECTION ( 'NONE',  ( 0.0000000000000000000, 0.0000000000000000000, 1.000000000000000000 ) ) ;
#166 = CARTESIAN_POINT ( 'NONE',  ( 0.0000000000000000000, 195.0000000000000000, 0.0000000000000000000 ) ) ;
#167 = DIRECTION ( 'NONE',  ( 0.0000000000000000000, 1.000000000000000000, 0.0000000000000000000 ) ) ;
#168 = CARTESIAN_POINT ( 'NONE',  ( 0.0000000000000000000, 195.0000000000000000, 0.0000000000000000000 ) ) ;
#169 = DIRECTION ( 'NONE',  ( -0.0000000000000000000, -1.000000000000000000, -0.0000000000000000000 ) ) ;
#170 = CYLINDRICAL_SURFACE ( 'NONE', #37, 2.999999999999999100 ) ;
#171 = DIRECTION ( 'NONE',  ( 0.0000000000000000000, 0.0000000000000000000, -1.000000000000000000 ) ) ;
#172 = CARTESIAN_POINT ( 'NONE',  ( 0.0000000000000000000, 195.0000000000000000, 0.0000000000000000000 ) ) ;
#173 = FACE_OUTER_BOUND ( 'NONE', #122, .T. ) ;
#174 = FACE_OUTER_BOUND ( 'NONE', #107, .T. ) ;
#175 = CARTESIAN_POINT ( 'NONE',  ( 0.0000000000000000000, 195.0000000000000000, 0.0000000000000000000 ) ) ;
#176 = DIRECTION ( 'NONE',  ( 0.0000000000000000000, 0.0000000000000000000, -1.000000000000000000 ) ) ;
#177 = CARTESIAN_POINT ( 'NONE',  ( 0.0000000000000000000, 195.0000000000000000, 0.0000000000000000000 ) ) ;
#178 = DIRECTION ( 'NONE',  ( -0.0000000000000000000, -1.000000000000000000, -0.0000000000000000000 ) ) ;
#179 = DIRECTION ( 'NONE',  ( -0.0000000000000000000, -1.000000000000000000, -0.0000000000000000000 ) ) ;
#180 = CYLINDRICAL_SURFACE ( 'NONE', #34, 2.000000000000000000 ) ;
#181 = DIRECTION ( 'NONE',  ( 0.0000000000000000000, 0.0000000000000000000, -1.000000000000000000 ) ) ;
#182 = FACE_OUTER_BOUND ( 'NONE', #75, .T. ) ;
#183 = CYLINDRICAL_SURFACE ( 'NONE', #23, 2.000000000000000000 ) ;
#184 = DIRECTION ( 'NONE',  ( 0.0000000000000000000, 0.0000000000000000000, 1.000000000000000000 ) ) ;
#185 = PRODUCT ( 'TL040620', 'TL040620', '', ( #43 ) ) ;
#186 = ADVANCED_BREP_SHAPE_REPRESENTATION ( 'TL040620', ( #212, #29 ), #21 ) ;
#187 = EDGE_CURVE ( 'NONE', #97, #85, #117, .T. ) ;
#188 = EDGE_CURVE ( 'NONE', #85, #74, #3, .T. ) ;
#189 = EDGE_CURVE ( 'NONE', #119, #108, #121, .T. ) ;
#190 = EDGE_CURVE ( 'NONE', #76, #83, #100, .T. ) ;
#191 = EDGE_CURVE ( 'NONE', #76, #119, #7, .T. ) ;
#192 = EDGE_CURVE ( 'NONE', #83, #108, #10, .T. ) ;
#193 = EDGE_CURVE ( 'NONE', #74, #85, #1, .T. ) ;
#194 = EDGE_CURVE ( 'NONE', #98, #97, #16, .T. ) ;
#195 = EDGE_CURVE ( 'NONE', #119, #76, #19, .T. ) ;
#196 = EDGE_CURVE ( 'NONE', #108, #83, #38, .T. ) ;
#197 = ADVANCED_FACE ( 'NONE', ( #136, #144 ), #125, .F. ) ;
#198 = ADVANCED_FACE ( 'NONE', ( #131, #132 ), #134, .T. ) ;
#199 = EDGE_CURVE ( 'NONE', #98, #74, #148, .T. ) ;
#200 = EDGE_CURVE ( 'NONE', #97, #98, #33, .T. ) ;
#201 = ADVANCED_FACE ( 'NONE', ( #156 ), #162, .T. ) ;
#202 = ADVANCED_FACE ( 'NONE', ( #174 ), #180, .F. ) ;
#203 = PRODUCT_RELATED_PRODUCT_CATEGORY ( 'part', '', ( #185 ) ) ;
#204 = PRODUCT_DEFINITION ( 'UNKNOWN', '', #26, #211 ) ;
#205 = ADVANCED_FACE ( 'NONE', ( #173 ), #170, .T. ) ;
#206 = ADVANCED_FACE ( 'NONE', ( #182 ), #183, .F. ) ;
#207 = UNCERTAINTY_MEASURE_WITH_UNIT (LENGTH_MEASURE( 1.000000000000000100E-005 ), #53, 'distance_accuracy_value', 'NONE');
#208 = PRODUCT_DEFINITION_SHAPE ( 'NONE', 'NONE',  #204 ) ;
#209 = UNCERTAINTY_MEASURE_WITH_UNIT (LENGTH_MEASURE( 1.000000000000000100E-005 ), #50, 'distance_accuracy_value', 'NONE');
#210 = UNCERTAINTY_MEASURE_WITH_UNIT (LENGTH_MEASURE( 1.000000000000000100E-005 ), #42, 'distance_accuracy_value', 'NONE');
#211 = PRODUCT_DEFINITION_CONTEXT ( 'detailed design', #213, 'design' ) ;
#212 = MANIFOLD_SOLID_BREP ( 'Extruir1', #6 ) ;
#213 = APPLICATION_CONTEXT ( 'automotive_design' ) ;
#214 = APPLICATION_CONTEXT ( 'automotive_design' ) ;
ENDSEC;
END-ISO-10303-21;
