ISO-10303-21;
HEADER;
FILE_DESCRIPTION (( 'STEP AP214' ),
    '1' );
FILE_NAME ('TL060820.STEP',
    '2013-06-26T07:51:18',
    ( '' ),
    ( '' ),
    'SwSTEP 2.0',
    'SolidWorks 2011',
    '' );
FILE_SCHEMA (( 'AUTOMOTIVE_DESIGN' ));
ENDSEC;

DATA;
#1 = CIRCLE ( 'NONE', #4, 3.000000000000000400 ) ;
#2 = AXIS2_PLACEMENT_3D ( 'NONE', #147, #163, #166 ) ;
#3 = VECTOR ( 'NONE', #108, 1000.000000000000000 ) ;
#4 = AXIS2_PLACEMENT_3D ( 'NONE', #81, #83, #89 ) ;
#5 = CLOSED_SHELL ( 'NONE', ( #196, #206, #190, #191, #204, #194 ) ) ;
#6 = AXIS2_PLACEMENT_3D ( 'NONE', #122, #87, #121 ) ;
#7 = CIRCLE ( 'NONE', #10, 4.000000000000000000 ) ;
#8 = AXIS2_PLACEMENT_3D ( 'NONE', #114, #93, #106 ) ;
#9 = AXIS2_PLACEMENT_3D ( 'NONE', #98, #99, #100 ) ;
#10 = AXIS2_PLACEMENT_3D ( 'NONE', #118, #85, #109 ) ;
#11 = CIRCLE ( 'NONE', #12, 4.000000000000000000 ) ;
#12 = AXIS2_PLACEMENT_3D ( 'NONE', #125, #119, #96 ) ;
#13 = CIRCLE ( 'NONE', #2, 4.000000000000000000 ) ;
#14 = VECTOR ( 'NONE', #146, 1000.000000000000000 ) ;
#15 = PRESENTATION_LAYER_ASSIGNMENT (  '', '', ( #28 ) ) ;
#16 = COLOUR_RGB ( '',0.9882352941176471000, 0.7372549019607843600, 0.5176470588235293500 ) ;
#17 = MECHANICAL_DESIGN_GEOMETRIC_PRESENTATION_REPRESENTATION (  '', ( #19 ), #34 ) ;
#18 =( GEOMETRIC_REPRESENTATION_CONTEXT ( 3 ) GLOBAL_UNCERTAINTY_ASSIGNED_CONTEXT ( ( #211 ) ) GLOBAL_UNIT_ASSIGNED_CONTEXT ( ( #138, #140, #141 ) ) REPRESENTATION_CONTEXT ( 'NONE', 'WORKASPACE' ) );
#19 = STYLED_ITEM ( 'NONE', ( #182 ), #188 ) ;
#20 = CIRCLE ( 'NONE', #25, 3.000000000000000400 ) ;
#21 = CIRCLE ( 'NONE', #24, 3.000000000000000400 ) ;
#22 = VECTOR ( 'NONE', #167, 1000.000000000000000 ) ;
#23 = CIRCLE ( 'NONE', #31, 3.000000000000000400 ) ;
#24 = AXIS2_PLACEMENT_3D ( 'NONE', #143, #135, #155 ) ;
#25 = AXIS2_PLACEMENT_3D ( 'NONE', #162, #142, #168 ) ;
#26 = AXIS2_PLACEMENT_3D ( 'NONE', #187, #174, #171 ) ;
#27 = PRODUCT_DEFINITION_FORMATION_WITH_SPECIFIED_SOURCE ( 'ANY', '', #43, .NOT_KNOWN. ) ;
#28 = STYLED_ITEM ( 'NONE', ( #139 ), #213 ) ;
#29 = AXIS2_PLACEMENT_3D ( 'NONE', #91, #92, #95 ) ;
#30 = MECHANICAL_DESIGN_GEOMETRIC_PRESENTATION_REPRESENTATION (  '', ( #28 ), #18 ) ;
#31 = AXIS2_PLACEMENT_3D ( 'NONE', #160, #128, #129 ) ;
#32 = AXIS2_PLACEMENT_3D ( 'NONE', #134, #164, #165 ) ;
#33 = PRESENTATION_LAYER_ASSIGNMENT (  '', '', ( #19 ) ) ;
#34 =( GEOMETRIC_REPRESENTATION_CONTEXT ( 3 ) GLOBAL_UNCERTAINTY_ASSIGNED_CONTEXT ( ( #214 ) ) GLOBAL_UNIT_ASSIGNED_CONTEXT ( ( #181, #170, #180 ) ) REPRESENTATION_CONTEXT ( 'NONE', 'WORKASPACE' ) );
#35 = CIRCLE ( 'NONE', #32, 4.000000000000000000 ) ;
#36 = AXIS2_PLACEMENT_3D ( 'NONE', #156, #154, #157 ) ;
#37 = VECTOR ( 'NONE', #145, 1000.000000000000000 ) ;
#38 = COLOUR_RGB ( '',0.9882352941176471000, 0.7372549019607843600, 0.5176470588235293500 ) ;
#39 = AXIS2_PLACEMENT_3D ( 'NONE', #150, #132, #133 ) ;
#40 =( GEOMETRIC_REPRESENTATION_CONTEXT ( 3 ) GLOBAL_UNCERTAINTY_ASSIGNED_CONTEXT ( ( #212 ) ) GLOBAL_UNIT_ASSIGNED_CONTEXT ( ( #177, #179, #185 ) ) REPRESENTATION_CONTEXT ( 'NONE', 'WORKASPACE' ) );
#41 = APPLICATION_CONTEXT ( 'automotive_design' ) ;
#42 = APPLICATION_CONTEXT ( 'automotive_design' ) ;
#43 = PRODUCT ( 'TL060820', 'TL060820', '', ( #173 ) ) ;
#44 = ORIENTED_EDGE ( 'NONE', *, *, #193, .T. ) ;
#45 = VERTEX_POINT ( 'NONE', #104 ) ;
#46 = EDGE_LOOP ( 'NONE', ( #72, #77, #53, #59 ) ) ;
#47 = ORIENTED_EDGE ( 'NONE', *, *, #201, .F. ) ;
#48 = EDGE_LOOP ( 'NONE', ( #47, #94 ) ) ;
#49 = CARTESIAN_POINT ( 'NONE',  ( 4.898587196589412800E-016, 195.0000000000000000, 4.000000000000000000 ) ) ;
#50 = ORIENTED_EDGE ( 'NONE', *, *, #197, .F. ) ;
#51 = EDGE_LOOP ( 'NONE', ( #88, #113, #105, #112 ) ) ;
#52 = EDGE_LOOP ( 'NONE', ( #60, #75, #55, #76 ) ) ;
#53 = ORIENTED_EDGE ( 'NONE', *, *, #207, .F. ) ;
#54 = CARTESIAN_POINT ( 'NONE',  ( 0.0000000000000000000, 195.0000000000000000, -3.000000000000000400 ) ) ;
#55 = ORIENTED_EDGE ( 'NONE', *, *, #199, .T. ) ;
#56 = ORIENTED_EDGE ( 'NONE', *, *, #207, .T. ) ;
#57 = ORIENTED_EDGE ( 'NONE', *, *, #203, .T. ) ;
#58 = ORIENTED_EDGE ( 'NONE', *, *, #195, .T. ) ;
#59 = ORIENTED_EDGE ( 'NONE', *, *, #202, .F. ) ;
#60 = ORIENTED_EDGE ( 'NONE', *, *, #192, .F. ) ;
#61 = ORIENTED_EDGE ( 'NONE', *, *, #203, .F. ) ;
#62 = ORIENTED_EDGE ( 'NONE', *, *, #189, .F. ) ;
#63 = ORIENTED_EDGE ( 'NONE', *, *, #199, .F. ) ;
#64 = VERTEX_POINT ( 'NONE', #49 ) ;
#65 = CARTESIAN_POINT ( 'NONE',  ( 3.673940397442060400E-016, 195.0000000000000000, 3.000000000000000400 ) ) ;
#66 = VERTEX_POINT ( 'NONE', #65 ) ;
#67 = VERTEX_POINT ( 'NONE', #54 ) ;
#68 = VERTEX_POINT ( 'NONE', #116 ) ;
#69 = EDGE_LOOP ( 'NONE', ( #44, #78 ) ) ;
#70 = EDGE_LOOP ( 'NONE', ( #62, #58, #103, #61 ) ) ;
#71 = EDGE_LOOP ( 'NONE', ( #56, #57 ) ) ;
#72 = ORIENTED_EDGE ( 'NONE', *, *, #201, .T. ) ;
#73 = VERTEX_POINT ( 'NONE', #117 ) ;
#74 = VERTEX_POINT ( 'NONE', #110 ) ;
#75 = ORIENTED_EDGE ( 'NONE', *, *, #208, .T. ) ;
#76 = ORIENTED_EDGE ( 'NONE', *, *, #205, .F. ) ;
#77 = ORIENTED_EDGE ( 'NONE', *, *, #189, .T. ) ;
#78 = ORIENTED_EDGE ( 'NONE', *, *, #192, .T. ) ;
#79 = VERTEX_POINT ( 'NONE', #111 ) ;
#80 = EDGE_LOOP ( 'NONE', ( #50, #63 ) ) ;
#81 = CARTESIAN_POINT ( 'NONE',  ( 0.0000000000000000000, 195.0000000000000000, 0.0000000000000000000 ) ) ;
#82 = FACE_BOUND ( 'NONE', #48, .T. ) ;
#83 = DIRECTION ( 'NONE',  ( 0.0000000000000000000, 1.000000000000000000, 0.0000000000000000000 ) ) ;
#84 = FACE_OUTER_BOUND ( 'NONE', #80, .T. ) ;
#85 = DIRECTION ( 'NONE',  ( 0.0000000000000000000, 1.000000000000000000, 0.0000000000000000000 ) ) ;
#86 = FACE_OUTER_BOUND ( 'NONE', #69, .T. ) ;
#87 = DIRECTION ( 'NONE',  ( -0.0000000000000000000, -1.000000000000000000, -0.0000000000000000000 ) ) ;
#88 = ORIENTED_EDGE ( 'NONE', *, *, #208, .F. ) ;
#89 = DIRECTION ( 'NONE',  ( 0.0000000000000000000, 0.0000000000000000000, 1.000000000000000000 ) ) ;
#90 = CYLINDRICAL_SURFACE ( 'NONE', #29, 3.000000000000000400 ) ;
#91 = CARTESIAN_POINT ( 'NONE',  ( 0.0000000000000000000, 195.0000000000000000, 0.0000000000000000000 ) ) ;
#92 = DIRECTION ( 'NONE',  ( -0.0000000000000000000, -1.000000000000000000, -0.0000000000000000000 ) ) ;
#93 = DIRECTION ( 'NONE',  ( 0.0000000000000000000, 1.000000000000000000, 0.0000000000000000000 ) ) ;
#94 = ORIENTED_EDGE ( 'NONE', *, *, #195, .F. ) ;
#95 = DIRECTION ( 'NONE',  ( 0.0000000000000000000, 0.0000000000000000000, -1.000000000000000000 ) ) ;
#96 = DIRECTION ( 'NONE',  ( 0.0000000000000000000, 0.0000000000000000000, 1.000000000000000000 ) ) ;
#97 = CARTESIAN_POINT ( 'NONE',  ( 3.673940397442060400E-016, 195.0000000000000000, 3.000000000000000400 ) ) ;
#98 = CARTESIAN_POINT ( 'NONE',  ( 0.0000000000000000000, 195.0000000000000000, 0.0000000000000000000 ) ) ;
#99 = DIRECTION ( 'NONE',  ( 0.0000000000000000000, 1.000000000000000000, 0.0000000000000000000 ) ) ;
#100 = DIRECTION ( 'NONE',  ( 0.0000000000000000000, -0.0000000000000000000, 1.000000000000000000 ) ) ;
#101 = LINE ( 'NONE', #152, #22 ) ;
#102 = PLANE ( 'NONE',  #8 ) ;
#103 = ORIENTED_EDGE ( 'NONE', *, *, #202, .T. ) ;
#104 = CARTESIAN_POINT ( 'NONE',  ( 4.898587196589412800E-016, 0.0000000000000000000, 4.000000000000000000 ) ) ;
#105 = ORIENTED_EDGE ( 'NONE', *, *, #205, .T. ) ;
#106 = DIRECTION ( 'NONE',  ( 0.0000000000000000000, -0.0000000000000000000, 1.000000000000000000 ) ) ;
#107 = LINE ( 'NONE', #97, #3 ) ;
#108 = DIRECTION ( 'NONE',  ( -0.0000000000000000000, -1.000000000000000000, -0.0000000000000000000 ) ) ;
#109 = DIRECTION ( 'NONE',  ( 0.0000000000000000000, 0.0000000000000000000, 1.000000000000000000 ) ) ;
#110 = CARTESIAN_POINT ( 'NONE',  ( 0.0000000000000000000, 195.0000000000000000, -4.000000000000000000 ) ) ;
#111 = CARTESIAN_POINT ( 'NONE',  ( 3.673940397442060400E-016, 0.0000000000000000000, 3.000000000000000400 ) ) ;
#112 = ORIENTED_EDGE ( 'NONE', *, *, #197, .T. ) ;
#113 = ORIENTED_EDGE ( 'NONE', *, *, #193, .F. ) ;
#114 = CARTESIAN_POINT ( 'NONE',  ( 0.0000000000000000000, 0.0000000000000000000, 0.0000000000000000000 ) ) ;
#115 = FACE_BOUND ( 'NONE', #71, .T. ) ;
#116 = CARTESIAN_POINT ( 'NONE',  ( 0.0000000000000000000, 0.0000000000000000000, -4.000000000000000000 ) ) ;
#117 = CARTESIAN_POINT ( 'NONE',  ( 0.0000000000000000000, 0.0000000000000000000, -3.000000000000000400 ) ) ;
#118 = CARTESIAN_POINT ( 'NONE',  ( 0.0000000000000000000, 195.0000000000000000, 0.0000000000000000000 ) ) ;
#119 = DIRECTION ( 'NONE',  ( 0.0000000000000000000, 1.000000000000000000, 0.0000000000000000000 ) ) ;
#120 = FACE_OUTER_BOUND ( 'NONE', #70, .T. ) ;
#121 = DIRECTION ( 'NONE',  ( 0.0000000000000000000, 0.0000000000000000000, -1.000000000000000000 ) ) ;
#122 = CARTESIAN_POINT ( 'NONE',  ( 0.0000000000000000000, 195.0000000000000000, 0.0000000000000000000 ) ) ;
#123 = CYLINDRICAL_SURFACE ( 'NONE', #6, 3.000000000000000400 ) ;
#124 = PLANE ( 'NONE',  #9 ) ;
#125 = CARTESIAN_POINT ( 'NONE',  ( 0.0000000000000000000, 195.0000000000000000, 0.0000000000000000000 ) ) ;
#126 = FACE_OUTER_BOUND ( 'NONE', #46, .T. ) ;
#127 = CYLINDRICAL_SURFACE ( 'NONE', #36, 4.000000000000000000 ) ;
#128 = DIRECTION ( 'NONE',  ( 0.0000000000000000000, 1.000000000000000000, 0.0000000000000000000 ) ) ;
#129 = DIRECTION ( 'NONE',  ( 0.0000000000000000000, 0.0000000000000000000, 1.000000000000000000 ) ) ;
#130 = CARTESIAN_POINT ( 'NONE',  ( 4.898587196589412800E-016, 195.0000000000000000, 4.000000000000000000 ) ) ;
#131 = FILL_AREA_STYLE ('',( #136 ) ) ;
#132 = DIRECTION ( 'NONE',  ( -0.0000000000000000000, -1.000000000000000000, -0.0000000000000000000 ) ) ;
#133 = DIRECTION ( 'NONE',  ( 0.0000000000000000000, 0.0000000000000000000, -1.000000000000000000 ) ) ;
#134 = CARTESIAN_POINT ( 'NONE',  ( 0.0000000000000000000, 0.0000000000000000000, 0.0000000000000000000 ) ) ;
#135 = DIRECTION ( 'NONE',  ( 0.0000000000000000000, 1.000000000000000000, 0.0000000000000000000 ) ) ;
#136 = FILL_AREA_STYLE_COLOUR ( '', #38 ) ;
#137 = LINE ( 'NONE', #130, #37 ) ;
#138 =( LENGTH_UNIT ( ) NAMED_UNIT ( * ) SI_UNIT ( .MILLI., .METRE. ) );
#139 = PRESENTATION_STYLE_ASSIGNMENT (( #148 ) ) ;
#140 =( NAMED_UNIT ( * ) PLANE_ANGLE_UNIT ( ) SI_UNIT ( $, .RADIAN. ) );
#141 =( NAMED_UNIT ( * ) SI_UNIT ( $, .STERADIAN. ) SOLID_ANGLE_UNIT ( ) );
#142 = DIRECTION ( 'NONE',  ( 0.0000000000000000000, 1.000000000000000000, 0.0000000000000000000 ) ) ;
#143 = CARTESIAN_POINT ( 'NONE',  ( 0.0000000000000000000, 0.0000000000000000000, 0.0000000000000000000 ) ) ;
#144 = FACE_OUTER_BOUND ( 'NONE', #52, .T. ) ;
#145 = DIRECTION ( 'NONE',  ( -0.0000000000000000000, -1.000000000000000000, -0.0000000000000000000 ) ) ;
#146 = DIRECTION ( 'NONE',  ( -0.0000000000000000000, -1.000000000000000000, -0.0000000000000000000 ) ) ;
#147 = CARTESIAN_POINT ( 'NONE',  ( 0.0000000000000000000, 0.0000000000000000000, 0.0000000000000000000 ) ) ;
#148 = SURFACE_STYLE_USAGE ( .BOTH. , #151 ) ;
#149 = FACE_OUTER_BOUND ( 'NONE', #51, .T. ) ;
#150 = CARTESIAN_POINT ( 'NONE',  ( 0.0000000000000000000, 195.0000000000000000, 0.0000000000000000000 ) ) ;
#151 = SURFACE_SIDE_STYLE ('',( #153 ) ) ;
#152 = CARTESIAN_POINT ( 'NONE',  ( 0.0000000000000000000, 195.0000000000000000, -3.000000000000000400 ) ) ;
#153 = SURFACE_STYLE_FILL_AREA ( #131 ) ;
#154 = DIRECTION ( 'NONE',  ( -0.0000000000000000000, -1.000000000000000000, -0.0000000000000000000 ) ) ;
#155 = DIRECTION ( 'NONE',  ( 0.0000000000000000000, 0.0000000000000000000, 1.000000000000000000 ) ) ;
#156 = CARTESIAN_POINT ( 'NONE',  ( 0.0000000000000000000, 195.0000000000000000, 0.0000000000000000000 ) ) ;
#157 = DIRECTION ( 'NONE',  ( 0.0000000000000000000, 0.0000000000000000000, -1.000000000000000000 ) ) ;
#158 = LINE ( 'NONE', #159, #14 ) ;
#159 = CARTESIAN_POINT ( 'NONE',  ( 0.0000000000000000000, 195.0000000000000000, -4.000000000000000000 ) ) ;
#160 = CARTESIAN_POINT ( 'NONE',  ( 0.0000000000000000000, 0.0000000000000000000, 0.0000000000000000000 ) ) ;
#161 = CYLINDRICAL_SURFACE ( 'NONE', #39, 4.000000000000000000 ) ;
#162 = CARTESIAN_POINT ( 'NONE',  ( 0.0000000000000000000, 195.0000000000000000, 0.0000000000000000000 ) ) ;
#163 = DIRECTION ( 'NONE',  ( 0.0000000000000000000, 1.000000000000000000, 0.0000000000000000000 ) ) ;
#164 = DIRECTION ( 'NONE',  ( 0.0000000000000000000, 1.000000000000000000, 0.0000000000000000000 ) ) ;
#165 = DIRECTION ( 'NONE',  ( 0.0000000000000000000, 0.0000000000000000000, 1.000000000000000000 ) ) ;
#166 = DIRECTION ( 'NONE',  ( 0.0000000000000000000, 0.0000000000000000000, 1.000000000000000000 ) ) ;
#167 = DIRECTION ( 'NONE',  ( -0.0000000000000000000, -1.000000000000000000, -0.0000000000000000000 ) ) ;
#168 = DIRECTION ( 'NONE',  ( 0.0000000000000000000, 0.0000000000000000000, 1.000000000000000000 ) ) ;
#169 = FILL_AREA_STYLE_COLOUR ( '', #16 ) ;
#170 =( NAMED_UNIT ( * ) PLANE_ANGLE_UNIT ( ) SI_UNIT ( $, .RADIAN. ) );
#171 = DIRECTION ( 'NONE',  ( 1.000000000000000000, 0.0000000000000000000, 0.0000000000000000000 ) ) ;
#172 = APPLICATION_PROTOCOL_DEFINITION ( 'draft international standard', 'automotive_design', 1998, #42 ) ;
#173 = PRODUCT_CONTEXT ( 'NONE', #42, 'mechanical' ) ;
#174 = DIRECTION ( 'NONE',  ( 0.0000000000000000000, 0.0000000000000000000, 1.000000000000000000 ) ) ;
#175 = FILL_AREA_STYLE ('',( #169 ) ) ;
#176 = SURFACE_STYLE_FILL_AREA ( #175 ) ;
#177 =( LENGTH_UNIT ( ) NAMED_UNIT ( * ) SI_UNIT ( .MILLI., .METRE. ) );
#178 = SURFACE_SIDE_STYLE ('',( #176 ) ) ;
#179 =( NAMED_UNIT ( * ) PLANE_ANGLE_UNIT ( ) SI_UNIT ( $, .RADIAN. ) );
#180 =( NAMED_UNIT ( * ) SI_UNIT ( $, .STERADIAN. ) SOLID_ANGLE_UNIT ( ) );
#181 =( LENGTH_UNIT ( ) NAMED_UNIT ( * ) SI_UNIT ( .MILLI., .METRE. ) );
#182 = PRESENTATION_STYLE_ASSIGNMENT (( #184 ) ) ;
#183 = APPLICATION_PROTOCOL_DEFINITION ( 'draft international standard', 'automotive_design', 1998, #41 ) ;
#184 = SURFACE_STYLE_USAGE ( .BOTH. , #178 ) ;
#185 =( NAMED_UNIT ( * ) SI_UNIT ( $, .STERADIAN. ) SOLID_ANGLE_UNIT ( ) );
#186 = SHAPE_DEFINITION_REPRESENTATION ( #210, #188 ) ;
#187 = CARTESIAN_POINT ( 'NONE',  ( 0.0000000000000000000, 0.0000000000000000000, 0.0000000000000000000 ) ) ;
#188 = ADVANCED_BREP_SHAPE_REPRESENTATION ( 'TL060820', ( #213, #26 ), #40 ) ;
#189 = EDGE_CURVE ( 'NONE', #66, #79, #107, .T. ) ;
#190 = ADVANCED_FACE ( 'NONE', ( #86, #82 ), #124, .T. ) ;
#191 = ADVANCED_FACE ( 'NONE', ( #84, #115 ), #102, .F. ) ;
#192 = EDGE_CURVE ( 'NONE', #64, #74, #7, .T. ) ;
#193 = EDGE_CURVE ( 'NONE', #74, #64, #11, .T. ) ;
#194 = ADVANCED_FACE ( 'NONE', ( #120 ), #123, .F. ) ;
#195 = EDGE_CURVE ( 'NONE', #66, #67, #1, .T. ) ;
#196 = ADVANCED_FACE ( 'NONE', ( #126 ), #90, .F. ) ;
#197 = EDGE_CURVE ( 'NONE', #68, #45, #13, .T. ) ;
#198 = PRODUCT_RELATED_PRODUCT_CATEGORY ( 'part', '', ( #43 ) ) ;
#199 = EDGE_CURVE ( 'NONE', #45, #68, #35, .T. ) ;
#200 = PRODUCT_DEFINITION ( 'UNKNOWN', '', #27, #209 ) ;
#201 = EDGE_CURVE ( 'NONE', #67, #66, #20, .T. ) ;
#202 = EDGE_CURVE ( 'NONE', #67, #73, #101, .T. ) ;
#203 = EDGE_CURVE ( 'NONE', #79, #73, #21, .T. ) ;
#204 = ADVANCED_FACE ( 'NONE', ( #149 ), #127, .T. ) ;
#205 = EDGE_CURVE ( 'NONE', #74, #68, #158, .T. ) ;
#206 = ADVANCED_FACE ( 'NONE', ( #144 ), #161, .T. ) ;
#207 = EDGE_CURVE ( 'NONE', #73, #79, #23, .T. ) ;
#208 = EDGE_CURVE ( 'NONE', #64, #45, #137, .T. ) ;
#209 = PRODUCT_DEFINITION_CONTEXT ( 'detailed design', #41, 'design' ) ;
#210 = PRODUCT_DEFINITION_SHAPE ( 'NONE', 'NONE',  #200 ) ;
#211 = UNCERTAINTY_MEASURE_WITH_UNIT (LENGTH_MEASURE( 1.000000000000000100E-005 ), #138, 'distance_accuracy_value', 'NONE');
#212 = UNCERTAINTY_MEASURE_WITH_UNIT (LENGTH_MEASURE( 1.000000000000000100E-005 ), #177, 'distance_accuracy_value', 'NONE');
#213 = MANIFOLD_SOLID_BREP ( 'Extruir1', #5 ) ;
#214 = UNCERTAINTY_MEASURE_WITH_UNIT (LENGTH_MEASURE( 1.000000000000000100E-005 ), #181, 'distance_accuracy_value', 'NONE');
ENDSEC;
END-ISO-10303-21;
