ISO-10303-21;
HEADER;
FILE_DESCRIPTION (( 'STEP AP214' ),
    '1' );
FILE_NAME ('TL101220.STEP',
    '2013-06-26T07:53:46',
    ( '' ),
    ( '' ),
    'SwSTEP 2.0',
    'SolidWorks 2011',
    '' );
FILE_SCHEMA (( 'AUTOMOTIVE_DESIGN' ));
ENDSEC;

DATA;
#1 = APPLICATION_CONTEXT ( 'automotive_design' ) ;
#2 = APPLICATION_CONTEXT ( 'automotive_design' ) ;
#3 = CIRCLE ( 'NONE', #8, 5.000000000000000000 ) ;
#4 = CLOSED_SHELL ( 'NONE', ( #45, #46, #59, #61, #60, #48 ) ) ;
#5 = AXIS2_PLACEMENT_3D ( 'NONE', #125, #127, #123 ) ;
#6 = AXIS2_PLACEMENT_3D ( 'NONE', #105, #70, #92 ) ;
#7 = AXIS2_PLACEMENT_3D ( 'NONE', #129, #137, #135 ) ;
#8 = AXIS2_PLACEMENT_3D ( 'NONE', #131, #124, #134 ) ;
#9 = AXIS2_PLACEMENT_3D ( 'NONE', #72, #128, #126 ) ;
#10 = CIRCLE ( 'NONE', #7, 6.000000000000000900 ) ;
#11 = CIRCLE ( 'NONE', #5, 6.000000000000000900 ) ;
#12 = AXIS2_PLACEMENT_3D ( 'NONE', #133, #119, #121 ) ;
#13 = CIRCLE ( 'NONE', #14, 6.000000000000000900 ) ;
#14 = AXIS2_PLACEMENT_3D ( 'NONE', #138, #116, #118 ) ;
#15 =( GEOMETRIC_REPRESENTATION_CONTEXT ( 3 ) GLOBAL_UNCERTAINTY_ASSIGNED_CONTEXT ( ( #212 ) ) GLOBAL_UNIT_ASSIGNED_CONTEXT ( ( #200, #190, #202 ) ) REPRESENTATION_CONTEXT ( 'NONE', 'WORKASPACE' ) );
#16 = CIRCLE ( 'NONE', #26, 5.000000000000000000 ) ;
#17 =( GEOMETRIC_REPRESENTATION_CONTEXT ( 3 ) GLOBAL_UNCERTAINTY_ASSIGNED_CONTEXT ( ( #211 ) ) GLOBAL_UNIT_ASSIGNED_CONTEXT ( ( #187, #199, #201 ) ) REPRESENTATION_CONTEXT ( 'NONE', 'WORKASPACE' ) );
#18 =( GEOMETRIC_REPRESENTATION_CONTEXT ( 3 ) GLOBAL_UNCERTAINTY_ASSIGNED_CONTEXT ( ( #213 ) ) GLOBAL_UNIT_ASSIGNED_CONTEXT ( ( #194, #196, #207 ) ) REPRESENTATION_CONTEXT ( 'NONE', 'WORKASPACE' ) );
#19 = PRESENTATION_LAYER_ASSIGNMENT (  '', '', ( #40 ) ) ;
#20 = PRESENTATION_LAYER_ASSIGNMENT (  '', '', ( #35 ) ) ;
#21 = VECTOR ( 'NONE', #117, 1000.000000000000000 ) ;
#22 = MECHANICAL_DESIGN_GEOMETRIC_PRESENTATION_REPRESENTATION (  '', ( #35 ), #17 ) ;
#23 = AXIS2_PLACEMENT_3D ( 'NONE', #156, #162, #180 ) ;
#24 = COLOUR_RGB ( '',0.9882352941176471000, 0.7372549019607843600, 0.5176470588235293500 ) ;
#25 = AXIS2_PLACEMENT_3D ( 'NONE', #139, #142, #120 ) ;
#26 = AXIS2_PLACEMENT_3D ( 'NONE', #132, #113, #114 ) ;
#27 = AXIS2_PLACEMENT_3D ( 'NONE', #176, #177, #157 ) ;
#28 = AXIS2_PLACEMENT_3D ( 'NONE', #152, #178, #144 ) ;
#29 = CIRCLE ( 'NONE', #27, 6.000000000000000900 ) ;
#30 = AXIS2_PLACEMENT_3D ( 'NONE', #179, #151, #167 ) ;
#31 = AXIS2_PLACEMENT_3D ( 'NONE', #149, #145, #143 ) ;
#32 = CIRCLE ( 'NONE', #25, 5.000000000000000000 ) ;
#33 = CIRCLE ( 'NONE', #31, 5.000000000000000000 ) ;
#34 = VECTOR ( 'NONE', #163, 1000.000000000000000 ) ;
#35 = STYLED_ITEM ( 'NONE', ( #195 ), #214 ) ;
#36 = VECTOR ( 'NONE', #168, 1000.000000000000000 ) ;
#37 = VECTOR ( 'NONE', #181, 1000.000000000000000 ) ;
#38 = AXIS2_PLACEMENT_3D ( 'NONE', #208, #204, #206 ) ;
#39 = MECHANICAL_DESIGN_GEOMETRIC_PRESENTATION_REPRESENTATION (  '', ( #40 ), #18 ) ;
#40 = STYLED_ITEM ( 'NONE', ( #197 ), #44 ) ;
#41 = PRODUCT_DEFINITION_FORMATION_WITH_SPECIFIED_SOURCE ( 'ANY', '', #43, .NOT_KNOWN. ) ;
#42 = COLOUR_RGB ( '',0.9882352941176471000, 0.7372549019607843600, 0.5176470588235293500 ) ;
#43 = PRODUCT ( 'TL101220', 'TL101220', '', ( #189 ) ) ;
#44 = ADVANCED_BREP_SHAPE_REPRESENTATION ( 'TL101220', ( #214, #38 ), #15 ) ;
#45 = ADVANCED_FACE ( 'NONE', ( #111 ), #69, .F. ) ;
#46 = ADVANCED_FACE ( 'NONE', ( #93 ), #66, .T. ) ;
#47 = EDGE_CURVE ( 'NONE', #104, #100, #11, .T. ) ;
#48 = ADVANCED_FACE ( 'NONE', ( #122 ), #130, .F. ) ;
#49 = EDGE_CURVE ( 'NONE', #67, #102, #10, .T. ) ;
#50 = EDGE_CURVE ( 'NONE', #78, #87, #3, .T. ) ;
#51 = EDGE_CURVE ( 'NONE', #102, #67, #13, .T. ) ;
#52 = EDGE_CURVE ( 'NONE', #95, #97, #32, .T. ) ;
#53 = EDGE_CURVE ( 'NONE', #97, #95, #16, .T. ) ;
#54 = EDGE_CURVE ( 'NONE', #97, #78, #136, .T. ) ;
#55 = EDGE_CURVE ( 'NONE', #87, #78, #33, .T. ) ;
#56 = EDGE_CURVE ( 'NONE', #102, #104, #140, .T. ) ;
#57 = EDGE_CURVE ( 'NONE', #100, #104, #29, .T. ) ;
#58 = EDGE_CURVE ( 'NONE', #95, #87, #148, .T. ) ;
#59 = ADVANCED_FACE ( 'NONE', ( #146, #150 ), #186, .T. ) ;
#60 = ADVANCED_FACE ( 'NONE', ( #147 ), #185, .T. ) ;
#61 = ADVANCED_FACE ( 'NONE', ( #170, #171 ), #160, .F. ) ;
#62 = PRODUCT_DEFINITION ( 'UNKNOWN', '', #41, #210 ) ;
#63 = PRODUCT_RELATED_PRODUCT_CATEGORY ( 'part', '', ( #43 ) ) ;
#64 = EDGE_CURVE ( 'NONE', #67, #100, #159, .T. ) ;
#65 = EDGE_LOOP ( 'NONE', ( #109, #86, #85, #88 ) ) ;
#66 = CYLINDRICAL_SURFACE ( 'NONE', #9, 6.000000000000000900 ) ;
#67 = VERTEX_POINT ( 'NONE', #154 ) ;
#68 = ORIENTED_EDGE ( 'NONE', *, *, #58, .T. ) ;
#69 = CYLINDRICAL_SURFACE ( 'NONE', #6, 5.000000000000000000 ) ;
#70 = DIRECTION ( 'NONE',  ( -0.0000000000000000000, -1.000000000000000000, -0.0000000000000000000 ) ) ;
#71 = ORIENTED_EDGE ( 'NONE', *, *, #53, .F. ) ;
#72 = CARTESIAN_POINT ( 'NONE',  ( 0.0000000000000000000, 195.0000000000000000, 0.0000000000000000000 ) ) ;
#73 = EDGE_LOOP ( 'NONE', ( #90, #110 ) ) ;
#74 = EDGE_LOOP ( 'NONE', ( #94, #81 ) ) ;
#75 = EDGE_LOOP ( 'NONE', ( #71, #96 ) ) ;
#76 = EDGE_LOOP ( 'NONE', ( #79, #68, #91, #112 ) ) ;
#77 = EDGE_LOOP ( 'NONE', ( #80, #103, #106, #108 ) ) ;
#78 = VERTEX_POINT ( 'NONE', #153 ) ;
#79 = ORIENTED_EDGE ( 'NONE', *, *, #53, .T. ) ;
#80 = ORIENTED_EDGE ( 'NONE', *, *, #49, .F. ) ;
#81 = ORIENTED_EDGE ( 'NONE', *, *, #49, .T. ) ;
#82 = EDGE_LOOP ( 'NONE', ( #98, #84 ) ) ;
#83 = ORIENTED_EDGE ( 'NONE', *, *, #56, .T. ) ;
#84 = ORIENTED_EDGE ( 'NONE', *, *, #55, .T. ) ;
#85 = ORIENTED_EDGE ( 'NONE', *, *, #54, .T. ) ;
#86 = ORIENTED_EDGE ( 'NONE', *, *, #52, .T. ) ;
#87 = VERTEX_POINT ( 'NONE', #174 ) ;
#88 = ORIENTED_EDGE ( 'NONE', *, *, #55, .F. ) ;
#89 = ORIENTED_EDGE ( 'NONE', *, *, #51, .F. ) ;
#90 = ORIENTED_EDGE ( 'NONE', *, *, #47, .F. ) ;
#91 = ORIENTED_EDGE ( 'NONE', *, *, #50, .F. ) ;
#92 = DIRECTION ( 'NONE',  ( 0.0000000000000000000, 0.0000000000000000000, -1.000000000000000000 ) ) ;
#93 = FACE_OUTER_BOUND ( 'NONE', #77, .T. ) ;
#94 = ORIENTED_EDGE ( 'NONE', *, *, #51, .T. ) ;
#95 = VERTEX_POINT ( 'NONE', #155 ) ;
#96 = ORIENTED_EDGE ( 'NONE', *, *, #52, .F. ) ;
#97 = VERTEX_POINT ( 'NONE', #166 ) ;
#98 = ORIENTED_EDGE ( 'NONE', *, *, #50, .T. ) ;
#99 = EDGE_LOOP ( 'NONE', ( #101, #89, #83, #107 ) ) ;
#100 = VERTEX_POINT ( 'NONE', #165 ) ;
#101 = ORIENTED_EDGE ( 'NONE', *, *, #64, .F. ) ;
#102 = VERTEX_POINT ( 'NONE', #158 ) ;
#103 = ORIENTED_EDGE ( 'NONE', *, *, #64, .T. ) ;
#104 = VERTEX_POINT ( 'NONE', #172 ) ;
#105 = CARTESIAN_POINT ( 'NONE',  ( 0.0000000000000000000, 195.0000000000000000, 0.0000000000000000000 ) ) ;
#106 = ORIENTED_EDGE ( 'NONE', *, *, #57, .T. ) ;
#107 = ORIENTED_EDGE ( 'NONE', *, *, #47, .T. ) ;
#108 = ORIENTED_EDGE ( 'NONE', *, *, #56, .F. ) ;
#109 = ORIENTED_EDGE ( 'NONE', *, *, #58, .F. ) ;
#110 = ORIENTED_EDGE ( 'NONE', *, *, #57, .F. ) ;
#111 = FACE_OUTER_BOUND ( 'NONE', #76, .T. ) ;
#112 = ORIENTED_EDGE ( 'NONE', *, *, #54, .F. ) ;
#113 = DIRECTION ( 'NONE',  ( 0.0000000000000000000, 1.000000000000000000, 0.0000000000000000000 ) ) ;
#114 = DIRECTION ( 'NONE',  ( 0.0000000000000000000, 0.0000000000000000000, 1.000000000000000000 ) ) ;
#115 = CARTESIAN_POINT ( 'NONE',  ( 0.0000000000000000000, 195.0000000000000000, -5.000000000000000000 ) ) ;
#116 = DIRECTION ( 'NONE',  ( 0.0000000000000000000, 1.000000000000000000, 0.0000000000000000000 ) ) ;
#117 = DIRECTION ( 'NONE',  ( -0.0000000000000000000, -1.000000000000000000, -0.0000000000000000000 ) ) ;
#118 = DIRECTION ( 'NONE',  ( 0.0000000000000000000, 0.0000000000000000000, 1.000000000000000000 ) ) ;
#119 = DIRECTION ( 'NONE',  ( -0.0000000000000000000, -1.000000000000000000, -0.0000000000000000000 ) ) ;
#120 = DIRECTION ( 'NONE',  ( 0.0000000000000000000, 0.0000000000000000000, 1.000000000000000000 ) ) ;
#121 = DIRECTION ( 'NONE',  ( 0.0000000000000000000, 0.0000000000000000000, -1.000000000000000000 ) ) ;
#122 = FACE_OUTER_BOUND ( 'NONE', #65, .T. ) ;
#123 = DIRECTION ( 'NONE',  ( 0.0000000000000000000, 0.0000000000000000000, 1.000000000000000000 ) ) ;
#124 = DIRECTION ( 'NONE',  ( 0.0000000000000000000, 1.000000000000000000, 0.0000000000000000000 ) ) ;
#125 = CARTESIAN_POINT ( 'NONE',  ( 0.0000000000000000000, 0.0000000000000000000, 0.0000000000000000000 ) ) ;
#126 = DIRECTION ( 'NONE',  ( 0.0000000000000000000, 0.0000000000000000000, -1.000000000000000000 ) ) ;
#127 = DIRECTION ( 'NONE',  ( 0.0000000000000000000, 1.000000000000000000, 0.0000000000000000000 ) ) ;
#128 = DIRECTION ( 'NONE',  ( -0.0000000000000000000, -1.000000000000000000, -0.0000000000000000000 ) ) ;
#129 = CARTESIAN_POINT ( 'NONE',  ( 0.0000000000000000000, 195.0000000000000000, 0.0000000000000000000 ) ) ;
#130 = CYLINDRICAL_SURFACE ( 'NONE', #12, 5.000000000000000000 ) ;
#131 = CARTESIAN_POINT ( 'NONE',  ( 0.0000000000000000000, 0.0000000000000000000, 0.0000000000000000000 ) ) ;
#132 = CARTESIAN_POINT ( 'NONE',  ( 0.0000000000000000000, 195.0000000000000000, 0.0000000000000000000 ) ) ;
#133 = CARTESIAN_POINT ( 'NONE',  ( 0.0000000000000000000, 195.0000000000000000, 0.0000000000000000000 ) ) ;
#134 = DIRECTION ( 'NONE',  ( 0.0000000000000000000, 0.0000000000000000000, 1.000000000000000000 ) ) ;
#135 = DIRECTION ( 'NONE',  ( 0.0000000000000000000, 0.0000000000000000000, 1.000000000000000000 ) ) ;
#136 = LINE ( 'NONE', #115, #21 ) ;
#137 = DIRECTION ( 'NONE',  ( 0.0000000000000000000, 1.000000000000000000, 0.0000000000000000000 ) ) ;
#138 = CARTESIAN_POINT ( 'NONE',  ( 0.0000000000000000000, 195.0000000000000000, 0.0000000000000000000 ) ) ;
#139 = CARTESIAN_POINT ( 'NONE',  ( 0.0000000000000000000, 195.0000000000000000, 0.0000000000000000000 ) ) ;
#140 = LINE ( 'NONE', #141, #36 ) ;
#141 = CARTESIAN_POINT ( 'NONE',  ( 0.0000000000000000000, 195.0000000000000000, -6.000000000000000900 ) ) ;
#142 = DIRECTION ( 'NONE',  ( 0.0000000000000000000, 1.000000000000000000, 0.0000000000000000000 ) ) ;
#143 = DIRECTION ( 'NONE',  ( 0.0000000000000000000, 0.0000000000000000000, 1.000000000000000000 ) ) ;
#144 = DIRECTION ( 'NONE',  ( 0.0000000000000000000, 0.0000000000000000000, -1.000000000000000000 ) ) ;
#145 = DIRECTION ( 'NONE',  ( 0.0000000000000000000, 1.000000000000000000, 0.0000000000000000000 ) ) ;
#146 = FACE_OUTER_BOUND ( 'NONE', #74, .T. ) ;
#147 = FACE_OUTER_BOUND ( 'NONE', #99, .T. ) ;
#148 = LINE ( 'NONE', #169, #34 ) ;
#149 = CARTESIAN_POINT ( 'NONE',  ( 0.0000000000000000000, 0.0000000000000000000, 0.0000000000000000000 ) ) ;
#150 = FACE_BOUND ( 'NONE', #75, .T. ) ;
#151 = DIRECTION ( 'NONE',  ( 0.0000000000000000000, 1.000000000000000000, 0.0000000000000000000 ) ) ;
#152 = CARTESIAN_POINT ( 'NONE',  ( 0.0000000000000000000, 195.0000000000000000, 0.0000000000000000000 ) ) ;
#153 = CARTESIAN_POINT ( 'NONE',  ( 0.0000000000000000000, 0.0000000000000000000, -5.000000000000000000 ) ) ;
#154 = CARTESIAN_POINT ( 'NONE',  ( 7.347880794884120700E-016, 195.0000000000000000, 6.000000000000000900 ) ) ;
#155 = CARTESIAN_POINT ( 'NONE',  ( 6.123233995736766300E-016, 195.0000000000000000, 5.000000000000000000 ) ) ;
#156 = CARTESIAN_POINT ( 'NONE',  ( 0.0000000000000000000, 0.0000000000000000000, 0.0000000000000000000 ) ) ;
#157 = DIRECTION ( 'NONE',  ( 0.0000000000000000000, 0.0000000000000000000, 1.000000000000000000 ) ) ;
#158 = CARTESIAN_POINT ( 'NONE',  ( 0.0000000000000000000, 195.0000000000000000, -6.000000000000000900 ) ) ;
#159 = LINE ( 'NONE', #175, #37 ) ;
#160 = PLANE ( 'NONE',  #23 ) ;
#161 = SURFACE_STYLE_USAGE ( .BOTH. , #184 ) ;
#162 = DIRECTION ( 'NONE',  ( 0.0000000000000000000, 1.000000000000000000, 0.0000000000000000000 ) ) ;
#163 = DIRECTION ( 'NONE',  ( -0.0000000000000000000, -1.000000000000000000, -0.0000000000000000000 ) ) ;
#164 = FILL_AREA_STYLE_COLOUR ( '', #24 ) ;
#165 = CARTESIAN_POINT ( 'NONE',  ( 7.347880794884120700E-016, 0.0000000000000000000, 6.000000000000000900 ) ) ;
#166 = CARTESIAN_POINT ( 'NONE',  ( 0.0000000000000000000, 195.0000000000000000, -5.000000000000000000 ) ) ;
#167 = DIRECTION ( 'NONE',  ( 0.0000000000000000000, -0.0000000000000000000, 1.000000000000000000 ) ) ;
#168 = DIRECTION ( 'NONE',  ( -0.0000000000000000000, -1.000000000000000000, -0.0000000000000000000 ) ) ;
#169 = CARTESIAN_POINT ( 'NONE',  ( 6.123233995736766300E-016, 195.0000000000000000, 5.000000000000000000 ) ) ;
#170 = FACE_OUTER_BOUND ( 'NONE', #73, .T. ) ;
#171 = FACE_BOUND ( 'NONE', #82, .T. ) ;
#172 = CARTESIAN_POINT ( 'NONE',  ( 0.0000000000000000000, 0.0000000000000000000, -6.000000000000000900 ) ) ;
#173 = FILL_AREA_STYLE_COLOUR ( '', #42 ) ;
#174 = CARTESIAN_POINT ( 'NONE',  ( 6.123233995736766300E-016, 0.0000000000000000000, 5.000000000000000000 ) ) ;
#175 = CARTESIAN_POINT ( 'NONE',  ( 7.347880794884120700E-016, 195.0000000000000000, 6.000000000000000900 ) ) ;
#176 = CARTESIAN_POINT ( 'NONE',  ( 0.0000000000000000000, 0.0000000000000000000, 0.0000000000000000000 ) ) ;
#177 = DIRECTION ( 'NONE',  ( 0.0000000000000000000, 1.000000000000000000, 0.0000000000000000000 ) ) ;
#178 = DIRECTION ( 'NONE',  ( -0.0000000000000000000, -1.000000000000000000, -0.0000000000000000000 ) ) ;
#179 = CARTESIAN_POINT ( 'NONE',  ( 0.0000000000000000000, 195.0000000000000000, 0.0000000000000000000 ) ) ;
#180 = DIRECTION ( 'NONE',  ( 0.0000000000000000000, -0.0000000000000000000, 1.000000000000000000 ) ) ;
#181 = DIRECTION ( 'NONE',  ( -0.0000000000000000000, -1.000000000000000000, -0.0000000000000000000 ) ) ;
#182 = FILL_AREA_STYLE ('',( #173 ) ) ;
#183 = SURFACE_STYLE_FILL_AREA ( #182 ) ;
#184 = SURFACE_SIDE_STYLE ('',( #183 ) ) ;
#185 = CYLINDRICAL_SURFACE ( 'NONE', #28, 6.000000000000000900 ) ;
#186 = PLANE ( 'NONE',  #30 ) ;
#187 =( LENGTH_UNIT ( ) NAMED_UNIT ( * ) SI_UNIT ( .MILLI., .METRE. ) );
#188 = APPLICATION_PROTOCOL_DEFINITION ( 'draft international standard', 'automotive_design', 1998, #1 ) ;
#189 = PRODUCT_CONTEXT ( 'NONE', #1, 'mechanical' ) ;
#190 =( NAMED_UNIT ( * ) PLANE_ANGLE_UNIT ( ) SI_UNIT ( $, .RADIAN. ) );
#191 = SURFACE_STYLE_FILL_AREA ( #198 ) ;
#192 = SURFACE_STYLE_USAGE ( .BOTH. , #193 ) ;
#193 = SURFACE_SIDE_STYLE ('',( #191 ) ) ;
#194 =( LENGTH_UNIT ( ) NAMED_UNIT ( * ) SI_UNIT ( .MILLI., .METRE. ) );
#195 = PRESENTATION_STYLE_ASSIGNMENT (( #161 ) ) ;
#196 =( NAMED_UNIT ( * ) PLANE_ANGLE_UNIT ( ) SI_UNIT ( $, .RADIAN. ) );
#197 = PRESENTATION_STYLE_ASSIGNMENT (( #192 ) ) ;
#198 = FILL_AREA_STYLE ('',( #164 ) ) ;
#199 =( NAMED_UNIT ( * ) PLANE_ANGLE_UNIT ( ) SI_UNIT ( $, .RADIAN. ) );
#200 =( LENGTH_UNIT ( ) NAMED_UNIT ( * ) SI_UNIT ( .MILLI., .METRE. ) );
#201 =( NAMED_UNIT ( * ) SI_UNIT ( $, .STERADIAN. ) SOLID_ANGLE_UNIT ( ) );
#202 =( NAMED_UNIT ( * ) SI_UNIT ( $, .STERADIAN. ) SOLID_ANGLE_UNIT ( ) );
#203 = SHAPE_DEFINITION_REPRESENTATION ( #209, #44 ) ;
#204 = DIRECTION ( 'NONE',  ( 0.0000000000000000000, 0.0000000000000000000, 1.000000000000000000 ) ) ;
#205 = APPLICATION_PROTOCOL_DEFINITION ( 'draft international standard', 'automotive_design', 1998, #2 ) ;
#206 = DIRECTION ( 'NONE',  ( 1.000000000000000000, 0.0000000000000000000, 0.0000000000000000000 ) ) ;
#207 =( NAMED_UNIT ( * ) SI_UNIT ( $, .STERADIAN. ) SOLID_ANGLE_UNIT ( ) );
#208 = CARTESIAN_POINT ( 'NONE',  ( 0.0000000000000000000, 0.0000000000000000000, 0.0000000000000000000 ) ) ;
#209 = PRODUCT_DEFINITION_SHAPE ( 'NONE', 'NONE',  #62 ) ;
#210 = PRODUCT_DEFINITION_CONTEXT ( 'detailed design', #2, 'design' ) ;
#211 = UNCERTAINTY_MEASURE_WITH_UNIT (LENGTH_MEASURE( 1.000000000000000100E-005 ), #187, 'distance_accuracy_value', 'NONE');
#212 = UNCERTAINTY_MEASURE_WITH_UNIT (LENGTH_MEASURE( 1.000000000000000100E-005 ), #200, 'distance_accuracy_value', 'NONE');
#213 = UNCERTAINTY_MEASURE_WITH_UNIT (LENGTH_MEASURE( 1.000000000000000100E-005 ), #194, 'distance_accuracy_value', 'NONE');
#214 = MANIFOLD_SOLID_BREP ( 'Extruir1', #4 ) ;
ENDSEC;
END-ISO-10303-21;
