ISO-10303-21;
HEADER;
FILE_DESCRIPTION (( 'STEP AP214' ),
    '1' );
FILE_NAME ('TO101410.STEP',
    '2013-06-26T07:12:40',
    ( '' ),
    ( '' ),
    'SwSTEP 2.0',
    'SolidWorks 2011',
    '' );
FILE_SCHEMA (( 'AUTOMOTIVE_DESIGN' ));
ENDSEC;

DATA;
#1 = APPLICATION_CONTEXT ( 'automotive_design' ) ;
#2 = APPLICATION_CONTEXT ( 'automotive_design' ) ;
#3 = APPLICATION_CONTEXT ( 'automotive_design' ) ;
#4 = APPLICATION_CONTEXT ( 'automotive_design' ) ;
#5 =( REPRESENTATION_RELATIONSHIP ('NONE','NONE', #7, #6 ) REPRESENTATION_RELATIONSHIP_WITH_TRANSFORMATION ( #248 )SHAPE_REPRESENTATION_RELATIONSHIP( ) );
#6 = SHAPE_REPRESENTATION ( 'TO.101410', ( #65 ), #60 ) ;
#7 = SHAPE_REPRESENTATION ( 'TO101410', ( #61, #67 ), #64 ) ;
#8 = EDGE_CURVE ( 'NONE', #109, #118, #88, .T. ) ;
#9 = EDGE_CURVE ( 'NONE', #119, #93, #156, .T. ) ;
#10 = EDGE_CURVE ( 'NONE', #100, #91, #28, .T. ) ;
#11 = EDGE_CURVE ( 'NONE', #119, #109, #26, .T. ) ;
#12 = EDGE_CURVE ( 'NONE', #109, #119, #23, .T. ) ;
#13 = EDGE_CURVE ( 'NONE', #118, #91, #138, .T. ) ;
#14 = EDGE_CURVE ( 'NONE', #93, #118, #24, .T. ) ;
#15 = EDGE_CURVE ( 'NONE', #100, #101, #31, .T. ) ;
#16 = EDGE_CURVE ( 'NONE', #108, #101, #29, .T. ) ;
#17 = AXIS2_PLACEMENT_3D ( 'NONE', #165, #157, #152 ) ;
#18 = CLOSED_SHELL ( 'NONE', ( #261, #254, #255, #251, #250, #256, #252, #253 ) ) ;
#19 = VECTOR ( 'NONE', #136, 1000.000000000000100 ) ;
#20 = AXIS2_PLACEMENT_3D ( 'NONE', #155, #131, #137 ) ;
#21 = VECTOR ( 'NONE', #135, 1000.000000000000200 ) ;
#22 = VECTOR ( 'NONE', #158, 1000.000000000000100 ) ;
#23 = CIRCLE ( 'NONE', #27, 3.950000000000003700 ) ;
#24 = CIRCLE ( 'NONE', #17, 4.950000000000000200 ) ;
#25 = AXIS2_PLACEMENT_3D ( 'NONE', #143, #133, #161 ) ;
#26 = CIRCLE ( 'NONE', #20, 3.950000000000003700 ) ;
#27 = AXIS2_PLACEMENT_3D ( 'NONE', #132, #140, #141 ) ;
#28 = CIRCLE ( 'NONE', #30, 5.250000000000000000 ) ;
#29 = CIRCLE ( 'NONE', #55, 5.050054949245613900 ) ;
#30 = AXIS2_PLACEMENT_3D ( 'NONE', #130, #139, #129 ) ;
#31 = CIRCLE ( 'NONE', #25, 0.1999999999999996500 ) ;
#32 = CONICAL_SURFACE ( 'NONE', #44, 4.950000000000000200, 0.02344179216276303500 ) ;
#33 = VECTOR ( 'NONE', #170, 1000.000000000000200 ) ;
#34 = AXIS2_PLACEMENT_3D ( 'NONE', #168, #173, #204 ) ;
#35 = AXIS2_PLACEMENT_3D ( 'NONE', #154, #120, #125 ) ;
#36 = CONICAL_SURFACE ( 'NONE', #53, 4.950000000000000200, 0.02344179216276303500 ) ;
#37 = CIRCLE ( 'NONE', #38, 4.950000000000000200 ) ;
#38 = AXIS2_PLACEMENT_3D ( 'NONE', #171, #167, #193 ) ;
#39 = CIRCLE ( 'NONE', #40, 5.050054949245613900 ) ;
#40 = AXIS2_PLACEMENT_3D ( 'NONE', #181, #197, #185 ) ;
#41 = PRESENTATION_LAYER_ASSIGNMENT (  '', '', ( #52 ) ) ;
#42 = TOROIDAL_SURFACE ( 'NONE', #43, 5.050054949245613900, 0.1999999999999998200 ) ;
#43 = AXIS2_PLACEMENT_3D ( 'NONE', #127, #149, #166 ) ;
#44 = AXIS2_PLACEMENT_3D ( 'NONE', #202, #180, #183 ) ;
#45 = MECHANICAL_DESIGN_GEOMETRIC_PRESENTATION_REPRESENTATION (  '', ( #52 ), #69 ) ;
#46 = CONICAL_SURFACE ( 'NONE', #47, 3.950000000000003700, 0.7853981633974461700 ) ;
#47 = AXIS2_PLACEMENT_3D ( 'NONE', #187, #172, #206 ) ;
#48 = CONICAL_SURFACE ( 'NONE', #35, 3.950000000000003700, 0.7853981633974461700 ) ;
#49 = TOROIDAL_SURFACE ( 'NONE', #56, 5.050054949245613900, 0.1999999999999998200 ) ;
#50 = CIRCLE ( 'NONE', #54, 0.1999999999999996500 ) ;
#51 = COLOUR_RGB ( '',0.8392156862745098200, 0.4666666666666666700, 0.3686274509803921800 ) ;
#52 = STYLED_ITEM ( 'NONE', ( #195 ), #273 ) ;
#53 = AXIS2_PLACEMENT_3D ( 'NONE', #208, #191, #209 ) ;
#54 = AXIS2_PLACEMENT_3D ( 'NONE', #182, #200, #174 ) ;
#55 = AXIS2_PLACEMENT_3D ( 'NONE', #146, #148, #162 ) ;
#56 = AXIS2_PLACEMENT_3D ( 'NONE', #207, #203, #175 ) ;
#57 = AXIS2_PLACEMENT_3D ( 'NONE', #196, #178, #169 ) ;
#58 = AXIS2_PLACEMENT_3D ( 'NONE', #122, #123, #124 ) ;
#59 = CIRCLE ( 'NONE', #34, 5.250000000000000000 ) ;
#60 =( GEOMETRIC_REPRESENTATION_CONTEXT ( 3 ) GLOBAL_UNCERTAINTY_ASSIGNED_CONTEXT ( ( #275 ) ) GLOBAL_UNIT_ASSIGNED_CONTEXT ( ( #212, #226, #218 ) ) REPRESENTATION_CONTEXT ( 'NONE', 'WORKASPACE' ) );
#61 = AXIS2_PLACEMENT_3D ( 'NONE', #216, #237, #238 ) ;
#62 = PRESENTATION_LAYER_ASSIGNMENT (  '', '', ( #68 ) ) ;
#63 = AXIS2_PLACEMENT_3D ( 'NONE', #221, #234, #214 ) ;
#64 =( GEOMETRIC_REPRESENTATION_CONTEXT ( 3 ) GLOBAL_UNCERTAINTY_ASSIGNED_CONTEXT ( ( #274 ) ) GLOBAL_UNIT_ASSIGNED_CONTEXT ( ( #228, #233, #229 ) ) REPRESENTATION_CONTEXT ( 'NONE', 'WORKASPACE' ) );
#65 = AXIS2_PLACEMENT_3D ( 'NONE', #236, #211, #219 ) ;
#66 = MECHANICAL_DESIGN_GEOMETRIC_PRESENTATION_REPRESENTATION (  '', ( #68 ), #73 ) ;
#67 = AXIS2_PLACEMENT_3D ( 'NONE', #223, #215, #224 ) ;
#68 = STYLED_ITEM ( 'NONE', ( #230 ), #263 ) ;
#69 =( GEOMETRIC_REPRESENTATION_CONTEXT ( 3 ) GLOBAL_UNCERTAINTY_ASSIGNED_CONTEXT ( ( #270 ) ) GLOBAL_UNIT_ASSIGNED_CONTEXT ( ( #199, #217, #239 ) ) REPRESENTATION_CONTEXT ( 'NONE', 'WORKASPACE' ) );
#70 = COLOUR_RGB ( '',0.8392156862745098200, 0.4666666666666666700, 0.3686274509803921800 ) ;
#71 = NEXT_ASSEMBLY_USAGE_OCCURRENCE ( 'NAUO1', ' ', ' ', #264, #267, $ ) ;
#72 = PRODUCT_DEFINITION_FORMATION_WITH_SPECIFIED_SOURCE ( 'ANY', '', #269, .NOT_KNOWN. ) ;
#73 =( GEOMETRIC_REPRESENTATION_CONTEXT ( 3 ) GLOBAL_UNCERTAINTY_ASSIGNED_CONTEXT ( ( #271 ) ) GLOBAL_UNIT_ASSIGNED_CONTEXT ( ( #231, #225, #232 ) ) REPRESENTATION_CONTEXT ( 'NONE', 'WORKASPACE' ) );
#74 = PRODUCT_DEFINITION_FORMATION_WITH_SPECIFIED_SOURCE ( 'ANY', '', #268, .NOT_KNOWN. ) ;
#75 = ORIENTED_EDGE ( 'NONE', *, *, #13, .F. ) ;
#76 = ORIENTED_EDGE ( 'NONE', *, *, #16, .T. ) ;
#77 = ORIENTED_EDGE ( 'NONE', *, *, #260, .T. ) ;
#78 = ORIENTED_EDGE ( 'NONE', *, *, #13, .T. ) ;
#79 = ORIENTED_EDGE ( 'NONE', *, *, #14, .T. ) ;
#80 = ORIENTED_EDGE ( 'NONE', *, *, #12, .F. ) ;
#81 = EDGE_LOOP ( 'NONE', ( #95, #87, #117, #116 ) ) ;
#82 = EDGE_LOOP ( 'NONE', ( #110, #106, #115, #86 ) ) ;
#83 = ORIENTED_EDGE ( 'NONE', *, *, #11, .F. ) ;
#84 = ORIENTED_EDGE ( 'NONE', *, *, #259, .T. ) ;
#85 = ORIENTED_EDGE ( 'NONE', *, *, #258, .T. ) ;
#86 = ORIENTED_EDGE ( 'NONE', *, *, #9, .F. ) ;
#87 = ORIENTED_EDGE ( 'NONE', *, *, #12, .T. ) ;
#88 = LINE ( 'NONE', #126, #19 ) ;
#89 = ORIENTED_EDGE ( 'NONE', *, *, #259, .F. ) ;
#90 = EDGE_LOOP ( 'NONE', ( #75, #77, #105, #89 ) ) ;
#91 = VERTEX_POINT ( 'NONE', #142 ) ;
#92 = EDGE_LOOP ( 'NONE', ( #104, #85, #102, #111 ) ) ;
#93 = VERTEX_POINT ( 'NONE', #144 ) ;
#94 = ORIENTED_EDGE ( 'NONE', *, *, #262, .T. ) ;
#95 = ORIENTED_EDGE ( 'NONE', *, *, #8, .F. ) ;
#96 = EDGE_LOOP ( 'NONE', ( #83, #80 ) ) ;
#97 = EDGE_LOOP ( 'NONE', ( #107, #84, #103, #113 ) ) ;
#98 = EDGE_LOOP ( 'NONE', ( #79, #78, #112, #114 ) ) ;
#99 = EDGE_LOOP ( 'NONE', ( #94, #76 ) ) ;
#100 = VERTEX_POINT ( 'NONE', #159 ) ;
#101 = VERTEX_POINT ( 'NONE', #163 ) ;
#102 = ORIENTED_EDGE ( 'NONE', *, *, #262, .F. ) ;
#103 = ORIENTED_EDGE ( 'NONE', *, *, #15, .T. ) ;
#104 = ORIENTED_EDGE ( 'NONE', *, *, #10, .T. ) ;
#105 = ORIENTED_EDGE ( 'NONE', *, *, #257, .T. ) ;
#106 = ORIENTED_EDGE ( 'NONE', *, *, #8, .T. ) ;
#107 = ORIENTED_EDGE ( 'NONE', *, *, #258, .F. ) ;
#108 = VERTEX_POINT ( 'NONE', #150 ) ;
#109 = VERTEX_POINT ( 'NONE', #134 ) ;
#110 = ORIENTED_EDGE ( 'NONE', *, *, #11, .T. ) ;
#111 = ORIENTED_EDGE ( 'NONE', *, *, #15, .F. ) ;
#112 = ORIENTED_EDGE ( 'NONE', *, *, #10, .F. ) ;
#113 = ORIENTED_EDGE ( 'NONE', *, *, #16, .F. ) ;
#114 = ORIENTED_EDGE ( 'NONE', *, *, #257, .F. ) ;
#115 = ORIENTED_EDGE ( 'NONE', *, *, #14, .F. ) ;
#116 = ORIENTED_EDGE ( 'NONE', *, *, #260, .F. ) ;
#117 = ORIENTED_EDGE ( 'NONE', *, *, #9, .T. ) ;
#118 = VERTEX_POINT ( 'NONE', #145 ) ;
#119 = VERTEX_POINT ( 'NONE', #164 ) ;
#120 = DIRECTION ( 'NONE',  ( -1.000000000000000000, -0.0000000000000000000, -0.0000000000000000000 ) ) ;
#121 = PLANE ( 'NONE',  #58 ) ;
#122 = CARTESIAN_POINT ( 'NONE',  ( 0.0000000000000000000, 0.0000000000000000000, 0.0000000000000000000 ) ) ;
#123 = DIRECTION ( 'NONE',  ( 1.000000000000000000, 0.0000000000000000000, 0.0000000000000000000 ) ) ;
#124 = DIRECTION ( 'NONE',  ( 0.0000000000000000000, 0.0000000000000000000, -1.000000000000000000 ) ) ;
#125 = DIRECTION ( 'NONE',  ( 0.0000000000000000000, 0.0000000000000000000, 1.000000000000000000 ) ) ;
#126 = CARTESIAN_POINT ( 'NONE',  ( 13.99999999999999800, 4.837354856632050000E-016, -3.950000000000003700 ) ) ;
#127 = CARTESIAN_POINT ( 'NONE',  ( 0.2000000000000000100, 0.0000000000000000000, 0.0000000000000000000 ) ) ;
#128 = FACE_OUTER_BOUND ( 'NONE', #81, .T. ) ;
#129 = DIRECTION ( 'NONE',  ( 0.0000000000000000000, 0.0000000000000000000, 1.000000000000000000 ) ) ;
#130 = CARTESIAN_POINT ( 'NONE',  ( 0.2046879290550918100, 0.0000000000000000000, 0.0000000000000000000 ) ) ;
#131 = DIRECTION ( 'NONE',  ( -1.000000000000000000, -0.0000000000000000000, -0.0000000000000000000 ) ) ;
#132 = CARTESIAN_POINT ( 'NONE',  ( 13.99999999999999800, 0.0000000000000000000, 0.0000000000000000000 ) ) ;
#133 = DIRECTION ( 'NONE',  ( 0.0000000000000000000, -1.000000000000000000, 0.0000000000000000000 ) ) ;
#134 = CARTESIAN_POINT ( 'NONE',  ( 13.99999999999999800, 5.449678256205724700E-016, -3.950000000000003700 ) ) ;
#135 = DIRECTION ( 'NONE',  ( -0.9997252537719356600, 2.870528655972429000E-018, -0.02343964527544597400 ) ) ;
#136 = DIRECTION ( 'NONE',  ( -0.7071067811865489100, 8.659560562354913100E-017, -0.7071067811865460200 ) ) ;
#137 = DIRECTION ( 'NONE',  ( 0.0000000000000000000, 0.0000000000000000000, 1.000000000000000000 ) ) ;
#138 = LINE ( 'NONE', #160, #21 ) ;
#139 = DIRECTION ( 'NONE',  ( -1.000000000000000000, -0.0000000000000000000, -0.0000000000000000000 ) ) ;
#140 = DIRECTION ( 'NONE',  ( -1.000000000000000000, -0.0000000000000000000, -0.0000000000000000000 ) ) ;
#141 = DIRECTION ( 'NONE',  ( 0.0000000000000000000, 0.0000000000000000000, 1.000000000000000000 ) ) ;
#142 = CARTESIAN_POINT ( 'NONE',  ( 0.2046879290550918100, 6.429395695523605100E-016, -5.250000000000000000 ) ) ;
#143 = CARTESIAN_POINT ( 'NONE',  ( 0.2000000000000000100, 0.0000000000000000000, 5.050054949245613900 ) ) ;
#144 = CARTESIAN_POINT ( 'NONE',  ( 12.99999999999999800, 0.0000000000000000000, 4.950000000000000200 ) ) ;
#145 = CARTESIAN_POINT ( 'NONE',  ( 12.99999999999999800, 6.245698675651501800E-016, -4.950000000000000200 ) ) ;
#146 = CARTESIAN_POINT ( 'NONE',  ( 0.0000000000000000000, 0.0000000000000000000, 0.0000000000000000000 ) ) ;
#147 = CARTESIAN_POINT ( 'NONE',  ( 13.99999999999999800, 0.0000000000000000000, 3.950000000000003700 ) ) ;
#148 = DIRECTION ( 'NONE',  ( -1.000000000000000000, -0.0000000000000000000, -0.0000000000000000000 ) ) ;
#149 = DIRECTION ( 'NONE',  ( -1.000000000000000000, -0.0000000000000000000, -0.0000000000000000000 ) ) ;
#150 = CARTESIAN_POINT ( 'NONE',  ( 0.0000000000000000000, 6.306964662317747700E-016, -5.050054949245613900 ) ) ;
#151 = FACE_OUTER_BOUND ( 'NONE', #97, .T. ) ;
#152 = DIRECTION ( 'NONE',  ( 0.0000000000000000000, 0.0000000000000000000, 1.000000000000000000 ) ) ;
#153 = FACE_OUTER_BOUND ( 'NONE', #99, .T. ) ;
#154 = CARTESIAN_POINT ( 'NONE',  ( 13.99999999999999800, 0.0000000000000000000, 0.0000000000000000000 ) ) ;
#155 = CARTESIAN_POINT ( 'NONE',  ( 13.99999999999999800, 0.0000000000000000000, 0.0000000000000000000 ) ) ;
#156 = LINE ( 'NONE', #147, #22 ) ;
#157 = DIRECTION ( 'NONE',  ( -1.000000000000000000, -0.0000000000000000000, -0.0000000000000000000 ) ) ;
#158 = DIRECTION ( 'NONE',  ( -0.7071067811865489100, 0.0000000000000000000, 0.7071067811865460200 ) ) ;
#159 = CARTESIAN_POINT ( 'NONE',  ( 0.2046879290550918100, 0.0000000000000000000, 5.250000000000000000 ) ) ;
#160 = CARTESIAN_POINT ( 'NONE',  ( 12.99999999999999800, 6.062001655779398500E-016, -4.950000000000000200 ) ) ;
#161 = DIRECTION ( 'NONE',  ( 0.0000000000000000000, 0.0000000000000000000, -1.000000000000000000 ) ) ;
#162 = DIRECTION ( 'NONE',  ( 0.0000000000000000000, 0.0000000000000000000, 1.000000000000000000 ) ) ;
#163 = CARTESIAN_POINT ( 'NONE',  ( 0.0000000000000000000, 0.0000000000000000000, 5.050054949245613900 ) ) ;
#164 = CARTESIAN_POINT ( 'NONE',  ( 13.99999999999999800, 0.0000000000000000000, 3.950000000000003700 ) ) ;
#165 = CARTESIAN_POINT ( 'NONE',  ( 12.99999999999999800, 0.0000000000000000000, 0.0000000000000000000 ) ) ;
#166 = DIRECTION ( 'NONE',  ( 0.0000000000000000000, 0.0000000000000000000, 1.000000000000000000 ) ) ;
#167 = DIRECTION ( 'NONE',  ( -1.000000000000000000, -0.0000000000000000000, -0.0000000000000000000 ) ) ;
#168 = CARTESIAN_POINT ( 'NONE',  ( 0.2046879290550918100, 0.0000000000000000000, 0.0000000000000000000 ) ) ;
#169 = DIRECTION ( 'NONE',  ( -0.0000000000000000000, 0.0000000000000000000, 1.000000000000000000 ) ) ;
#170 = DIRECTION ( 'NONE',  ( -0.9997252537719356600, 0.0000000000000000000, 0.02343964527544597400 ) ) ;
#171 = CARTESIAN_POINT ( 'NONE',  ( 12.99999999999999800, 0.0000000000000000000, 0.0000000000000000000 ) ) ;
#172 = DIRECTION ( 'NONE',  ( -1.000000000000000000, -0.0000000000000000000, -0.0000000000000000000 ) ) ;
#173 = DIRECTION ( 'NONE',  ( -1.000000000000000000, -0.0000000000000000000, -0.0000000000000000000 ) ) ;
#174 = DIRECTION ( 'NONE',  ( 0.0000000000000000000, -1.224646799147353500E-016, 1.000000000000000000 ) ) ;
#175 = DIRECTION ( 'NONE',  ( 0.0000000000000000000, 0.0000000000000000000, 1.000000000000000000 ) ) ;
#176 = FACE_OUTER_BOUND ( 'NONE', #82, .T. ) ;
#177 = FACE_OUTER_BOUND ( 'NONE', #96, .T. ) ;
#178 = DIRECTION ( 'NONE',  ( -1.000000000000000000, 0.0000000000000000000, -0.0000000000000000000 ) ) ;
#179 = SURFACE_STYLE_FILL_AREA ( #198 ) ;
#180 = DIRECTION ( 'NONE',  ( -1.000000000000000000, -0.0000000000000000000, -0.0000000000000000000 ) ) ;
#181 = CARTESIAN_POINT ( 'NONE',  ( 0.0000000000000000000, 0.0000000000000000000, 0.0000000000000000000 ) ) ;
#182 = CARTESIAN_POINT ( 'NONE',  ( 0.2000000000000000100, 6.184533629111890200E-016, -5.050054949245613900 ) ) ;
#183 = DIRECTION ( 'NONE',  ( 0.0000000000000000000, 0.0000000000000000000, 1.000000000000000000 ) ) ;
#184 = FACE_OUTER_BOUND ( 'NONE', #98, .T. ) ;
#185 = DIRECTION ( 'NONE',  ( 0.0000000000000000000, 0.0000000000000000000, 1.000000000000000000 ) ) ;
#186 = FACE_OUTER_BOUND ( 'NONE', #92, .T. ) ;
#187 = CARTESIAN_POINT ( 'NONE',  ( 13.99999999999999800, 0.0000000000000000000, 0.0000000000000000000 ) ) ;
#188 = FILL_AREA_STYLE_COLOUR ( '', #51 ) ;
#189 = PLANE ( 'NONE',  #57 ) ;
#190 = SURFACE_SIDE_STYLE ('',( #179 ) ) ;
#191 = DIRECTION ( 'NONE',  ( -1.000000000000000000, -0.0000000000000000000, -0.0000000000000000000 ) ) ;
#192 = LINE ( 'NONE', #205, #33 ) ;
#193 = DIRECTION ( 'NONE',  ( 0.0000000000000000000, 0.0000000000000000000, 1.000000000000000000 ) ) ;
#194 = SURFACE_STYLE_USAGE ( .BOTH. , #190 ) ;
#195 = PRESENTATION_STYLE_ASSIGNMENT (( #194 ) ) ;
#196 = CARTESIAN_POINT ( 'NONE',  ( 14.00000000000000000, 3.950000000000003700, 0.0000000000000000000 ) ) ;
#197 = DIRECTION ( 'NONE',  ( -1.000000000000000000, -0.0000000000000000000, -0.0000000000000000000 ) ) ;
#198 = FILL_AREA_STYLE ('',( #188 ) ) ;
#199 =( LENGTH_UNIT ( ) NAMED_UNIT ( * ) SI_UNIT ( .MILLI., .METRE. ) );
#200 = DIRECTION ( 'NONE',  ( -0.0000000000000000000, 1.000000000000000000, 1.224646799147353200E-016 ) ) ;
#201 = FACE_OUTER_BOUND ( 'NONE', #90, .T. ) ;
#202 = CARTESIAN_POINT ( 'NONE',  ( 12.99999999999999800, 0.0000000000000000000, 0.0000000000000000000 ) ) ;
#203 = DIRECTION ( 'NONE',  ( -1.000000000000000000, -0.0000000000000000000, -0.0000000000000000000 ) ) ;
#204 = DIRECTION ( 'NONE',  ( 0.0000000000000000000, 0.0000000000000000000, 1.000000000000000000 ) ) ;
#205 = CARTESIAN_POINT ( 'NONE',  ( 12.99999999999999800, 0.0000000000000000000, 4.950000000000000200 ) ) ;
#206 = DIRECTION ( 'NONE',  ( 0.0000000000000000000, 0.0000000000000000000, 1.000000000000000000 ) ) ;
#207 = CARTESIAN_POINT ( 'NONE',  ( 0.2000000000000000100, 0.0000000000000000000, 0.0000000000000000000 ) ) ;
#208 = CARTESIAN_POINT ( 'NONE',  ( 12.99999999999999800, 0.0000000000000000000, 0.0000000000000000000 ) ) ;
#209 = DIRECTION ( 'NONE',  ( 0.0000000000000000000, 0.0000000000000000000, 1.000000000000000000 ) ) ;
#210 = SURFACE_SIDE_STYLE ('',( #227 ) ) ;
#211 = DIRECTION ( 'NONE',  ( 0.0000000000000000000, 0.0000000000000000000, 1.000000000000000000 ) ) ;
#212 =( LENGTH_UNIT ( ) NAMED_UNIT ( * ) SI_UNIT ( .MILLI., .METRE. ) );
#213 = SURFACE_STYLE_USAGE ( .BOTH. , #210 ) ;
#214 = DIRECTION ( 'NONE',  ( 1.000000000000000000, 0.0000000000000000000, 0.0000000000000000000 ) ) ;
#215 = DIRECTION ( 'NONE',  ( 0.0000000000000000000, 0.0000000000000000000, 1.000000000000000000 ) ) ;
#216 = CARTESIAN_POINT ( 'NONE',  ( 0.0000000000000000000, 0.0000000000000000000, 0.0000000000000000000 ) ) ;
#217 =( NAMED_UNIT ( * ) PLANE_ANGLE_UNIT ( ) SI_UNIT ( $, .RADIAN. ) );
#218 =( NAMED_UNIT ( * ) SI_UNIT ( $, .STERADIAN. ) SOLID_ANGLE_UNIT ( ) );
#219 = DIRECTION ( 'NONE',  ( 1.000000000000000000, 0.0000000000000000000, 0.0000000000000000000 ) ) ;
#220 = SHAPE_REPRESENTATION_RELATIONSHIP ( 'NONE' , 'NONE' ,  #6, #263 ) ;
#221 = CARTESIAN_POINT ( 'NONE',  ( 0.0000000000000000000, 0.0000000000000000000, 0.0000000000000000000 ) ) ;
#222 = FILL_AREA_STYLE_COLOUR ( '', #70 ) ;
#223 = CARTESIAN_POINT ( 'NONE',  ( 0.0000000000000000000, 0.0000000000000000000, 0.0000000000000000000 ) ) ;
#224 = DIRECTION ( 'NONE',  ( 1.000000000000000000, 0.0000000000000000000, 0.0000000000000000000 ) ) ;
#225 =( NAMED_UNIT ( * ) PLANE_ANGLE_UNIT ( ) SI_UNIT ( $, .RADIAN. ) );
#226 =( NAMED_UNIT ( * ) PLANE_ANGLE_UNIT ( ) SI_UNIT ( $, .RADIAN. ) );
#227 = SURFACE_STYLE_FILL_AREA ( #235 ) ;
#228 =( LENGTH_UNIT ( ) NAMED_UNIT ( * ) SI_UNIT ( .MILLI., .METRE. ) );
#229 =( NAMED_UNIT ( * ) SI_UNIT ( $, .STERADIAN. ) SOLID_ANGLE_UNIT ( ) );
#230 = PRESENTATION_STYLE_ASSIGNMENT (( #213 ) ) ;
#231 =( LENGTH_UNIT ( ) NAMED_UNIT ( * ) SI_UNIT ( .MILLI., .METRE. ) );
#232 =( NAMED_UNIT ( * ) SI_UNIT ( $, .STERADIAN. ) SOLID_ANGLE_UNIT ( ) );
#233 =( NAMED_UNIT ( * ) PLANE_ANGLE_UNIT ( ) SI_UNIT ( $, .RADIAN. ) );
#234 = DIRECTION ( 'NONE',  ( 0.0000000000000000000, 0.0000000000000000000, 1.000000000000000000 ) ) ;
#235 = FILL_AREA_STYLE ('',( #222 ) ) ;
#236 = CARTESIAN_POINT ( 'NONE',  ( 0.0000000000000000000, 0.0000000000000000000, 0.0000000000000000000 ) ) ;
#237 = DIRECTION ( 'NONE',  ( 0.0000000000000000000, 0.0000000000000000000, 1.000000000000000000 ) ) ;
#238 = DIRECTION ( 'NONE',  ( 1.000000000000000000, 0.0000000000000000000, 0.0000000000000000000 ) ) ;
#239 =( NAMED_UNIT ( * ) SI_UNIT ( $, .STERADIAN. ) SOLID_ANGLE_UNIT ( ) );
#240 = APPLICATION_PROTOCOL_DEFINITION ( 'draft international standard', 'automotive_design', 1998, #3 ) ;
#241 = PRODUCT_CONTEXT ( 'NONE', #2, 'mechanical' ) ;
#242 = SHAPE_DEFINITION_REPRESENTATION ( #279, #7 ) ;
#243 = APPLICATION_PROTOCOL_DEFINITION ( 'draft international standard', 'automotive_design', 1998, #4 ) ;
#244 = CONTEXT_DEPENDENT_SHAPE_REPRESENTATION ( #5, #272 ) ;
#245 = APPLICATION_PROTOCOL_DEFINITION ( 'draft international standard', 'automotive_design', 1998, #2 ) ;
#246 = SHAPE_DEFINITION_REPRESENTATION ( #278, #6 ) ;
#247 = PRODUCT_CONTEXT ( 'NONE', #3, 'mechanical' ) ;
#248 = ITEM_DEFINED_TRANSFORMATION ( 'NONE', 'NONE', #67,  #65 ) ;
#249 = APPLICATION_PROTOCOL_DEFINITION ( 'draft international standard', 'automotive_design', 1998, #1 ) ;
#250 = ADVANCED_FACE ( 'NONE', ( #151 ), #42, .T. ) ;
#251 = ADVANCED_FACE ( 'NONE', ( #153 ), #121, .F. ) ;
#252 = ADVANCED_FACE ( 'NONE', ( #128 ), #48, .T. ) ;
#253 = ADVANCED_FACE ( 'NONE', ( #177 ), #189, .F. ) ;
#254 = ADVANCED_FACE ( 'NONE', ( #184 ), #32, .T. ) ;
#255 = ADVANCED_FACE ( 'NONE', ( #186 ), #49, .T. ) ;
#256 = ADVANCED_FACE ( 'NONE', ( #201 ), #36, .T. ) ;
#257 = EDGE_CURVE ( 'NONE', #93, #100, #192, .T. ) ;
#258 = EDGE_CURVE ( 'NONE', #91, #108, #50, .T. ) ;
#259 = EDGE_CURVE ( 'NONE', #91, #100, #59, .T. ) ;
#260 = EDGE_CURVE ( 'NONE', #118, #93, #37, .T. ) ;
#261 = ADVANCED_FACE ( 'NONE', ( #176 ), #46, .T. ) ;
#262 = EDGE_CURVE ( 'NONE', #101, #108, #39, .T. ) ;
#263 = ADVANCED_BREP_SHAPE_REPRESENTATION ( '', ( #273, #65 ), #60 ) ;
#264 = PRODUCT_DEFINITION ( 'UNKNOWN', '', #72, #276 ) ;
#265 = PRODUCT_RELATED_PRODUCT_CATEGORY ( 'part', '', ( #269 ) ) ;
#266 = PRODUCT_RELATED_PRODUCT_CATEGORY ( 'part', '', ( #268 ) ) ;
#267 = PRODUCT_DEFINITION ( 'UNKNOWN', '', #74, #277 ) ;
#268 = PRODUCT ( 'TO.101410', 'TO.101410', '', ( #247 ) ) ;
#269 = PRODUCT ( 'TO101410', 'TO101410', '', ( #241 ) ) ;
#270 = UNCERTAINTY_MEASURE_WITH_UNIT (LENGTH_MEASURE( 1.000000000000000100E-005 ), #199, 'distance_accuracy_value', 'NONE');
#271 = UNCERTAINTY_MEASURE_WITH_UNIT (LENGTH_MEASURE( 1.000000000000000100E-005 ), #231, 'distance_accuracy_value', 'NONE');
#272 = PRODUCT_DEFINITION_SHAPE ( 'NONE', 'NONE',  #71 ) ;
#273 = MANIFOLD_SOLID_BREP ( 'Revolución1', #18 ) ;
#274 = UNCERTAINTY_MEASURE_WITH_UNIT (LENGTH_MEASURE( 1.000000000000000100E-005 ), #228, 'distance_accuracy_value', 'NONE');
#275 = UNCERTAINTY_MEASURE_WITH_UNIT (LENGTH_MEASURE( 1.000000000000000100E-005 ), #212, 'distance_accuracy_value', 'NONE');
#276 = PRODUCT_DEFINITION_CONTEXT ( 'detailed design', #1, 'design' ) ;
#277 = PRODUCT_DEFINITION_CONTEXT ( 'detailed design', #4, 'design' ) ;
#278 = PRODUCT_DEFINITION_SHAPE ( 'NONE', 'NONE',  #267 ) ;
#279 = PRODUCT_DEFINITION_SHAPE ( 'NONE', 'NONE',  #264 ) ;
ENDSEC;
END-ISO-10303-21;
